ISO-10303-21;
HEADER;
FILE_DESCRIPTION (( 'STEP AP203' ),
    '1' );
FILE_NAME ('TTN047597-E0W.STEP',
    '2019-05-30T15:04:45',
    ( '' ),
    ( '' ),
    'SwSTEP 2.0',
    'SolidWorks 2018',
    '' );
FILE_SCHEMA (( 'CONFIG_CONTROL_DESIGN' ));
ENDSEC;

DATA;
#1 = DIRECTION ( 'NONE',  ( 0.0000000000000000000, 1.000000000000000000, -8.500145032286359496E-15 ) ) ;
#2 = CARTESIAN_POINT ( 'NONE',  ( 0.0000000000000000000, 2.930048763603570199E-14, 1.442845476287586193 ) ) ;
#3 = FACE_OUTER_BOUND ( 'NONE', #221, .T. ) ;
#4 = CC_DESIGN_DATE_AND_TIME_ASSIGNMENT ( #216, #156, ( #297 ) ) ;
#5 = APPROVAL_DATE_TIME ( #43, #167 ) ;
#6 = CARTESIAN_POINT ( 'NONE',  ( 1.543054966925660145E-15, -12.49999999999993072, 1.442845476287692552 ) ) ;
#7 = CIRCLE ( 'NONE', #277, 140.4999999999998863 ) ;
#8 = DIRECTION ( 'NONE',  ( 0.0000000000000000000, 8.510543920092029819E-15, 1.000000000000000000 ) ) ;
#9 = CC_DESIGN_SECURITY_CLASSIFICATION ( #297, ( #51 ) ) ;
#10 = ORIENTED_EDGE ( 'NONE', *, *, #45, .F. ) ;
#11 = PRODUCT ( 'TTN047597-E0W', 'TTN047597-E0W', '', ( #127 ) ) ;
#12 = CARTESIAN_POINT ( 'NONE',  ( 1.530808498934186788E-15, -12.49999999999993072, 1.442845476287692552 ) ) ;
#13 = VECTOR ( 'NONE', #229, 1000.000000000000000 ) ;
#14 = PERSON_AND_ORGANIZATION_ROLE ( 'design_supplier' ) ;
#15 = ADVANCED_FACE ( 'NONE', ( #200 ), #95, .T. ) ;
#16 = EDGE_LOOP ( 'NONE', ( #242, #238, #220 ) ) ;
#17 = LOCAL_TIME ( 11, 4, 45.00000000000000000, #81 ) ;
#18 = EDGE_CURVE ( 'NONE', #245, #65, #139, .T. ) ;
#19 = ADVANCED_FACE ( 'NONE', ( #182 ), #55, .T. ) ;
#20 = CIRCLE ( 'NONE', #204, 12.69999999999998685 ) ;
#21 = PERSON_AND_ORGANIZATION ( #152, #209 ) ;
#22 = EDGE_CURVE ( 'NONE', #65, #201, #144, .T. ) ;
#23 = EDGE_LOOP ( 'NONE', ( #53, #96, #141, #251 ) ) ;
#24 = CC_DESIGN_APPROVAL ( #112, ( #51 ) ) ;
#25 = ORIENTED_EDGE ( 'NONE', *, *, #45, .T. ) ;
#26 = CARTESIAN_POINT ( 'NONE',  ( 0.0000000000000000000, 9.385847134436014568E-28, -1.999999999999893863 ) ) ;
#27 = AXIS2_PLACEMENT_3D ( 'NONE', #119, #213, #171 ) ;
#28 = DIRECTION ( 'NONE',  ( 0.0000000000000000000, 1.000000000000000000, -8.502876880280027871E-15 ) ) ;
#29 = CALENDAR_DATE ( 2019, 30, 5 ) ;
#30 = MANIFOLD_SOLID_BREP ( 'TTN047598-1-solid1', #246 ) ;
#31 = DESIGN_CONTEXT ( 'detailed design', #178, 'design' ) ;
#32 = DIRECTION ( 'NONE',  ( 0.0000000000000000000, 1.000000000000000000, -8.502876880280045226E-15 ) ) ;
#33 = DIRECTION ( 'NONE',  ( 0.0000000000000000000, 1.000000000000000000, -8.517492267046149655E-15 ) ) ;
#34 = DIRECTION ( 'NONE',  ( 0.0000000000000000000, 1.000000000000000000, 3.950971617883122910E-16 ) ) ;
#35 = VERTEX_POINT ( 'NONE', #6 ) ;
#36 = EDGE_CURVE ( 'NONE', #67, #201, #20, .T. ) ;
#37 = EDGE_LOOP ( 'NONE', ( #148, #259, #78, #162 ) ) ;
#38 = ADVANCED_FACE ( 'NONE', ( #87 ), #184, .T. ) ;
#39 = CARTESIAN_POINT ( 'NONE',  ( 1.555301434917133699E-15, -12.69999999999993356, 1.242845476287695705 ) ) ;
#40 = COORDINATED_UNIVERSAL_TIME_OFFSET ( 5, 0, .BEHIND. ) ;
#41 = CARTESIAN_POINT ( 'NONE',  ( 0.0000000000000000000, 1.683588815234999875E-14, -138.4999999999996305 ) ) ;
#42 =( LENGTH_UNIT ( ) NAMED_UNIT ( * ) SI_UNIT ( .MILLI., .METRE. ) );
#43 = DATE_AND_TIME ( #29, #235 ) ;
#44 =( NAMED_UNIT ( * ) PLANE_ANGLE_UNIT ( ) SI_UNIT ( $, .RADIAN. ) );
#45 = EDGE_CURVE ( 'NONE', #166, #67, #76, .T. ) ;
#46 = CC_DESIGN_PERSON_AND_ORGANIZATION_ASSIGNMENT ( #21, #69, ( #297 ) ) ;
#47 = AXIS2_PLACEMENT_3D ( 'NONE', #212, #286, #33 ) ;
#48 = EDGE_CURVE ( 'NONE', #263, #166, #169, .T. ) ;
#49 = LINE ( 'NONE', #77, #163 ) ;
#50 = PERSON_AND_ORGANIZATION ( #152, #209 ) ;
#51 = PRODUCT_DEFINITION_FORMATION_WITH_SPECIFIED_SOURCE ( 'ANY', '', #11, .NOT_KNOWN. ) ;
#52 = FACE_OUTER_BOUND ( 'NONE', #23, .T. ) ;
#53 = ORIENTED_EDGE ( 'NONE', *, *, #72, .F. ) ;
#54 = DIRECTION ( 'NONE',  ( 0.0000000000000000000, 1.000000000000000000, -8.502876880280045226E-15 ) ) ;
#55 = SPHERICAL_SURFACE ( 'NONE', #83, 140.4999999999998863 ) ;
#56 = DIRECTION ( 'NONE',  ( -0.0000000000000000000, -8.510543920092029819E-15, -1.000000000000000000 ) ) ;
#57 = EDGE_CURVE ( 'NONE', #65, #245, #91, .T. ) ;
#58 = ORIENTED_EDGE ( 'NONE', *, *, #108, .T. ) ;
#59 = DIRECTION ( 'NONE',  ( 1.000000000000000000, 1.224646799147353207E-16, 3.749275628560213616E-32 ) ) ;
#60 = DIRECTION ( 'NONE',  ( 0.0000000000000000000, 0.7071067811865453523, -0.7071067811865496822 ) ) ;
#61 = DIRECTION ( 'NONE',  ( 0.0000000000000000000, 1.000000000000000000, -8.500145032286359496E-15 ) ) ;
#62 = DIRECTION ( 'NONE',  ( -0.0000000000000000000, -8.510543920092029819E-15, -1.000000000000000000 ) ) ;
#63 = PERSON_AND_ORGANIZATION_ROLE ( 'creator' ) ;
#64 = EDGE_CURVE ( 'NONE', #245, #67, #49, .T. ) ;
#65 = VERTEX_POINT ( 'NONE', #279 ) ;
#66 = APPROVAL_STATUS ( 'not_yet_approved' ) ;
#67 = VERTEX_POINT ( 'NONE', #206 ) ;
#68 = ADVANCED_FACE ( 'NONE', ( #131 ), #287, .T. ) ;
#69 = PERSON_AND_ORGANIZATION_ROLE ( 'classification_officer' ) ;
#70 = ORIENTED_EDGE ( 'NONE', *, *, #275, .F. ) ;
#71 = DIRECTION ( 'NONE',  ( 0.0000000000000000000, 1.000000000000000000, -8.517492267046149655E-15 ) ) ;
#72 = EDGE_CURVE ( 'NONE', #35, #245, #299, .T. ) ;
#73 = ORIENTED_EDGE ( 'NONE', *, *, #189, .T. ) ;
#74 = ORIENTED_EDGE ( 'NONE', *, *, #165, .T. ) ;
#75 = DIRECTION ( 'NONE',  ( -0.0000000000000000000, -8.510543920092029819E-15, -1.000000000000000000 ) ) ;
#76 = LINE ( 'NONE', #186, #13 ) ;
#77 = CARTESIAN_POINT ( 'NONE',  ( 1.555301434917137249E-15, -12.69999999999998863, -2.000000000000003997 ) ) ;
#78 = ORIENTED_EDGE ( 'NONE', *, *, #108, .F. ) ;
#79 = CARTESIAN_POINT ( 'NONE',  ( 0.0000000000000000000, 12.49999999999999112, 1.442845476287479611 ) ) ;
#80 = CARTESIAN_POINT ( 'NONE',  ( 0.0000000000000000000, 9.385847134436014568E-28, -1.999999999999893863 ) ) ;
#81 = COORDINATED_UNIVERSAL_TIME_OFFSET ( 5, 0, .BEHIND. ) ;
#82 = CARTESIAN_POINT ( 'NONE',  ( 0.0000000000000000000, 2.930048763603570199E-14, 1.442845476287586193 ) ) ;
#83 = AXIS2_PLACEMENT_3D ( 'NONE', #282, #142, #208 ) ;
#84 = ORIENTED_EDGE ( 'NONE', *, *, #72, .T. ) ;
#85 = DIRECTION ( 'NONE',  ( 0.0000000000000000000, 1.000000000000000000, 3.061515884555943146E-16 ) ) ;
#86 = CARTESIAN_POINT ( 'NONE',  ( 1.555301434917137052E-15, 12.69999999999998863, -1.800000000000000044 ) ) ;
#87 = FACE_OUTER_BOUND ( 'NONE', #113, .T. ) ;
#88 = APPLICATION_PROTOCOL_DEFINITION ( 'international standard', 'config_control_design', 1994, #128 ) ;
#89 = AXIS2_PLACEMENT_3D ( 'NONE', #190, #121, #145 ) ;
#90 = DATE_TIME_ROLE ( 'creation_date' ) ;
#91 = CIRCLE ( 'NONE', #174, 12.69999999999996199 ) ;
#92 = ORIENTED_EDGE ( 'NONE', *, *, #165, .F. ) ;
#93 = ADVANCED_BREP_SHAPE_REPRESENTATION ( 'TTN047597-E0W', ( #30, #254 ), #120 ) ;
#94 = VECTOR ( 'NONE', #104, 999.9999999999998863 ) ;
#95 = CYLINDRICAL_SURFACE ( 'NONE', #198, 12.69999999999998863 ) ;
#96 = ORIENTED_EDGE ( 'NONE', *, *, #129, .T. ) ;
#97 = AXIS2_PLACEMENT_3D ( 'NONE', #2, #170, #227 ) ;
#98 = PERSON_AND_ORGANIZATION ( #152, #209 ) ;
#99 = CARTESIAN_POINT ( 'NONE',  ( 0.0000000000000000000, 12.69999999999998863, -1.999999999999996225 ) ) ;
#100 = VECTOR ( 'NONE', #123, 999.9999999999998863 ) ;
#101 = CONICAL_SURFACE ( 'NONE', #228, 12.69999999999998685, 0.7853981633974320697 ) ;
#102 = CYLINDRICAL_SURFACE ( 'NONE', #27, 12.69999999999998863 ) ;
#103 = ADVANCED_FACE ( 'NONE', ( #3 ), #101, .T. ) ;
#104 = DIRECTION ( 'NONE',  ( 8.659560562354793575E-17, 0.7071067811865420216, 0.7071067811865531239 ) ) ;
#105 = AXIS2_PLACEMENT_3D ( 'NONE', #82, #151, #71 ) ;
#106 = ADVANCED_FACE ( 'NONE', ( #240 ), #226, .T. ) ;
#107 = CARTESIAN_POINT ( 'NONE',  ( 0.0000000000000000000, 1.683588815234999875E-14, -138.4999999999996305 ) ) ;
#108 = EDGE_CURVE ( 'NONE', #201, #67, #270, .T. ) ;
#109 = CALENDAR_DATE ( 2019, 30, 5 ) ;
#110 = SPHERICAL_SURFACE ( 'NONE', #157, 140.4999999999998863 ) ;
#111 = PERSON_AND_ORGANIZATION_ROLE ( 'creator' ) ;
#112 = APPROVAL ( #295, 'UNSPECIFIED' ) ;
#113 = EDGE_LOOP ( 'NONE', ( #134, #84, #176, #181 ) ) ;
#114 = DATE_AND_TIME ( #203, #269 ) ;
#115 = CC_DESIGN_PERSON_AND_ORGANIZATION_ASSIGNMENT ( #280, #63, ( #51 ) ) ;
#116 = CARTESIAN_POINT ( 'NONE',  ( 0.0000000000000000000, 2.759837885201730707E-14, 1.242845476287587791 ) ) ;
#117 = ORIENTED_EDGE ( 'NONE', *, *, #36, .T. ) ;
#118 = AXIS2_PLACEMENT_3D ( 'NONE', #116, #75, #32 ) ;
#119 = CARTESIAN_POINT ( 'NONE',  ( 0.0000000000000000000, 8.547752349680193105E-16, -2.000000000000000000 ) ) ;
#120 =( GEOMETRIC_REPRESENTATION_CONTEXT ( 3 ) GLOBAL_UNCERTAINTY_ASSIGNED_CONTEXT ( ( #211 ) ) GLOBAL_UNIT_ASSIGNED_CONTEXT ( ( #42, #44, #293 ) ) REPRESENTATION_CONTEXT ( 'NONE', 'WORKASPACE' ) );
#121 = DIRECTION ( 'NONE',  ( 0.0000000000000000000, 8.510543920092029819E-15, 1.000000000000000000 ) ) ;
#122 = DIRECTION ( 'NONE',  ( -0.0000000000000000000, -8.510543920092029819E-15, -1.000000000000000000 ) ) ;
#123 = DIRECTION ( 'NONE',  ( 8.659560562354980929E-17, -0.7071067811865574537, -0.7071067811865376918 ) ) ;
#124 = COORDINATED_UNIVERSAL_TIME_OFFSET ( 5, 0, .BEHIND. ) ;
#125 = CONICAL_SURFACE ( 'NONE', #47, 12.49999999999996092, 0.7853981633974537191 ) ;
#126 = DIRECTION ( 'NONE',  ( 0.0000000000000000000, 0.0000000000000000000, 1.000000000000000000 ) ) ;
#127 = MECHANICAL_CONTEXT ( 'NONE', #128, 'mechanical' ) ;
#128 = APPLICATION_CONTEXT ( 'configuration controlled 3d designs of mechanical parts and assemblies' ) ;
#129 = EDGE_CURVE ( 'NONE', #35, #137, #199, .T. ) ;
#130 = CC_DESIGN_PERSON_AND_ORGANIZATION_ASSIGNMENT ( #285, #14, ( #51 ) ) ;
#131 = FACE_OUTER_BOUND ( 'NONE', #281, .T. ) ;
#132 = VECTOR ( 'NONE', #252, 1000.000000000000000 ) ;
#133 = VECTOR ( 'NONE', #60, 1000.000000000000000 ) ;
#134 = ORIENTED_EDGE ( 'NONE', *, *, #250, .T. ) ;
#135 = AXIS2_PLACEMENT_3D ( 'NONE', #236, #62, #231 ) ;
#136 = APPROVAL_PERSON_ORGANIZATION ( #219, #112, #244 ) ;
#137 = VERTEX_POINT ( 'NONE', #150 ) ;
#138 = FACE_OUTER_BOUND ( 'NONE', #37, .T. ) ;
#139 = CIRCLE ( 'NONE', #118, 12.69999999999996199 ) ;
#140 = DIRECTION ( 'NONE',  ( -0.0000000000000000000, -8.510543920092029819E-15, -1.000000000000000000 ) ) ;
#141 = ORIENTED_EDGE ( 'NONE', *, *, #218, .T. ) ;
#142 = DIRECTION ( 'NONE',  ( 1.000000000000000000, 0.0000000000000000000, -0.0000000000000000000 ) ) ;
#143 = DIRECTION ( 'NONE',  ( -0.0000000000000000000, 3.061515884555943146E-16, -1.000000000000000000 ) ) ;
#144 = LINE ( 'NONE', #99, #132 ) ;
#145 = DIRECTION ( 'NONE',  ( 0.0000000000000000000, -1.000000000000000000, 8.502876880280027871E-15 ) ) ;
#146 = EDGE_CURVE ( 'NONE', #274, #35, #262, .T. ) ;
#147 = CARTESIAN_POINT ( 'NONE',  ( 0.0000000000000000000, 1.702108784019359894E-15, -1.799999999999891909 ) ) ;
#148 = ORIENTED_EDGE ( 'NONE', *, *, #57, .T. ) ;
#149 = CARTESIAN_POINT ( 'NONE',  ( 0.0000000000000000000, -12.49999999999999289, -1.999999999999787503 ) ) ;
#150 = CARTESIAN_POINT ( 'NONE',  ( 0.0000000000000000000, 12.49999999999999112, 1.442845476287479611 ) ) ;
#151 = DIRECTION ( 'NONE',  ( -0.0000000000000000000, -8.510543920092029819E-15, -1.000000000000000000 ) ) ;
#152 = PERSON ( 'UNSPECIFIED', 'UNSPECIFIED', 'UNSPECIFIED', ('UNSPECIFIED'), ('UNSPECIFIED'), ('UNSPECIFIED') ) ;
#153 = APPROVAL_STATUS ( 'not_yet_approved' ) ;
#154 = CARTESIAN_POINT ( 'NONE',  ( 0.0000000000000000000, 0.0000000000000000000, 0.0000000000000000000 ) ) ;
#155 = PERSON_AND_ORGANIZATION ( #152, #209 ) ;
#156 = DATE_TIME_ROLE ( 'classification_date' ) ;
#157 = AXIS2_PLACEMENT_3D ( 'NONE', #257, #191, #34 ) ;
#158 = ADVANCED_FACE ( 'NONE', ( #138 ), #102, .T. ) ;
#159 = AXIS2_PLACEMENT_3D ( 'NONE', #26, #140, #1 ) ;
#160 = ADVANCED_FACE ( 'NONE', ( #52 ), #125, .T. ) ;
#161 = LINE ( 'NONE', #79, #133 ) ;
#162 = ORIENTED_EDGE ( 'NONE', *, *, #22, .F. ) ;
#163 = VECTOR ( 'NONE', #207, 1000.000000000000000 ) ;
#164 = APPROVAL_PERSON_ORGANIZATION ( #155, #194, #217 ) ;
#165 = EDGE_CURVE ( 'NONE', #166, #263, #289, .T. ) ;
#166 = VERTEX_POINT ( 'NONE', #149 ) ;
#167 = APPROVAL ( #66, 'UNSPECIFIED' ) ;
#168 = CARTESIAN_POINT ( 'NONE',  ( 0.0000000000000000000, 2.759837885201730707E-14, 1.242845476287587791 ) ) ;
#169 = CIRCLE ( 'NONE', #159, 12.49999999999999289 ) ;
#170 = DIRECTION ( 'NONE',  ( -0.0000000000000000000, -8.510543920092029819E-15, -1.000000000000000000 ) ) ;
#171 = DIRECTION ( 'NONE',  ( 0.0000000000000000000, 1.000000000000000000, 3.073328992872298832E-16 ) ) ;
#172 = DATE_AND_TIME ( #109, #17 ) ;
#173 = LOCAL_TIME ( 11, 4, 45.00000000000000000, #40 ) ;
#174 = AXIS2_PLACEMENT_3D ( 'NONE', #168, #185, #54 ) ;
#175 = CIRCLE ( 'NONE', #105, 12.49999999999996092 ) ;
#176 = ORIENTED_EDGE ( 'NONE', *, *, #57, .F. ) ;
#177 = ORIENTED_EDGE ( 'NONE', *, *, #48, .T. ) ;
#178 = APPLICATION_CONTEXT ( 'configuration controlled 3d designs of mechanical parts and assemblies' ) ;
#179 = ORIENTED_EDGE ( 'NONE', *, *, #189, .F. ) ;
#180 = AXIS2_PLACEMENT_3D ( 'NONE', #80, #288, #61 ) ;
#181 = ORIENTED_EDGE ( 'NONE', *, *, #218, .F. ) ;
#182 = FACE_OUTER_BOUND ( 'NONE', #197, .T. ) ;
#183 = COORDINATED_UNIVERSAL_TIME_OFFSET ( 5, 0, .BEHIND. ) ;
#184 = CONICAL_SURFACE ( 'NONE', #97, 12.49999999999996092, 0.7853981633974537191 ) ;
#185 = DIRECTION ( 'NONE',  ( -0.0000000000000000000, -8.510543920092029819E-15, -1.000000000000000000 ) ) ;
#186 = CARTESIAN_POINT ( 'NONE',  ( 0.0000000000000000000, -12.69999999999998508, -1.799999999999783995 ) ) ;
#187 = PRODUCT_DEFINITION ( 'UNKNOWN', '', #51, #31 ) ;
#188 = CARTESIAN_POINT ( 'NONE',  ( 0.0000000000000000000, 1.702108784019359894E-15, -1.799999999999891909 ) ) ;
#189 = EDGE_CURVE ( 'NONE', #263, #201, #214, .T. ) ;
#190 = CARTESIAN_POINT ( 'NONE',  ( 0.0000000000000000000, 1.702108784019359894E-15, -1.799999999999891909 ) ) ;
#191 = DIRECTION ( 'NONE',  ( 1.000000000000000000, 0.0000000000000000000, -0.0000000000000000000 ) ) ;
#192 = CARTESIAN_POINT ( 'NONE',  ( 1.543054966925663695E-15, 12.49999999999999289, -2.000000000000000000 ) ) ;
#193 = DIRECTION ( 'NONE',  ( 0.0000000000000000000, -1.000000000000000000, 8.502876880280027871E-15 ) ) ;
#194 = APPROVAL ( #153, 'UNSPECIFIED' ) ;
#195 = APPLICATION_PROTOCOL_DEFINITION ( 'international standard', 'config_control_design', 1994, #178 ) ;
#196 = ADVANCED_FACE ( 'NONE', ( #224 ), #110, .T. ) ;
#197 = EDGE_LOOP ( 'NONE', ( #70, #301, #290 ) ) ;
#198 = AXIS2_PLACEMENT_3D ( 'NONE', #205, #143, #284 ) ;
#199 = CIRCLE ( 'NONE', #135, 12.49999999999996092 ) ;
#200 = FACE_OUTER_BOUND ( 'NONE', #276, .T. ) ;
#201 = VERTEX_POINT ( 'NONE', #234 ) ;
#202 = AXIS2_PLACEMENT_3D ( 'NONE', #147, #122, #261 ) ;
#203 = CALENDAR_DATE ( 2019, 30, 5 ) ;
#204 = AXIS2_PLACEMENT_3D ( 'NONE', #188, #56, #28 ) ;
#205 = CARTESIAN_POINT ( 'NONE',  ( 0.0000000000000000000, 8.547752349680193105E-16, -2.000000000000000000 ) ) ;
#206 = CARTESIAN_POINT ( 'NONE',  ( 1.555301434917137052E-15, -12.69999999999998508, -1.799999999999783995 ) ) ;
#207 = DIRECTION ( 'NONE',  ( -0.0000000000000000000, 3.061515884555943146E-16, -1.000000000000000000 ) ) ;
#208 = DIRECTION ( 'NONE',  ( 0.0000000000000000000, 1.000000000000000000, 3.950971617883122910E-16 ) ) ;
#209 = ORGANIZATION ( 'UNSPECIFIED', 'UNSPECIFIED', '' ) ;
#210 = DIRECTION ( 'NONE',  ( -1.224646799147352961E-16, 1.000000000000000000, 0.0000000000000000000 ) ) ;
#211 = UNCERTAINTY_MEASURE_WITH_UNIT (LENGTH_MEASURE( 1.000000000000000082E-05 ), #42, 'distance_accuracy_value', 'NONE');
#212 = CARTESIAN_POINT ( 'NONE',  ( 0.0000000000000000000, 2.930048763603570199E-14, 1.442845476287586193 ) ) ;
#213 = DIRECTION ( 'NONE',  ( -0.0000000000000000000, 3.061515884555943146E-16, -1.000000000000000000 ) ) ;
#214 = LINE ( 'NONE', #86, #94 ) ;
#215 = CC_DESIGN_PERSON_AND_ORGANIZATION_ASSIGNMENT ( #98, #243, ( #11 ) ) ;
#216 = DATE_AND_TIME ( #223, #294 ) ;
#217 = APPROVAL_ROLE ( '' ) ;
#218 = EDGE_CURVE ( 'NONE', #137, #65, #161, .T. ) ;
#219 = PERSON_AND_ORGANIZATION ( #152, #209 ) ;
#220 = ORIENTED_EDGE ( 'NONE', *, *, #129, .F. ) ;
#221 = EDGE_LOOP ( 'NONE', ( #179, #92, #25, #117 ) ) ;
#222 = DATE_AND_TIME ( #255, #173 ) ;
#223 = CALENDAR_DATE ( 2019, 30, 5 ) ;
#224 = FACE_OUTER_BOUND ( 'NONE', #16, .T. ) ;
#225 = PRODUCT_RELATED_PRODUCT_CATEGORY ( 'detail', '', ( #11 ) ) ;
#226 = CONICAL_SURFACE ( 'NONE', #89, 12.69999999999998685, 0.7853981633974320697 ) ;
#227 = DIRECTION ( 'NONE',  ( 0.0000000000000000000, 1.000000000000000000, -8.517492267046149655E-15 ) ) ;
#228 = AXIS2_PLACEMENT_3D ( 'NONE', #278, #8, #193 ) ;
#229 = DIRECTION ( 'NONE',  ( 0.0000000000000000000, -0.7071067811865300312, 0.7071067811865650032 ) ) ;
#230 = CC_DESIGN_APPROVAL ( #194, ( #187 ) ) ;
#231 = DIRECTION ( 'NONE',  ( 0.0000000000000000000, 1.000000000000000000, -8.517492267046149655E-15 ) ) ;
#232 = ORIENTED_EDGE ( 'NONE', *, *, #64, .F. ) ;
#233 = CARTESIAN_POINT ( 'NONE',  ( 0.0000000000000000000, 8.547752349680199021E-16, -2.000000000000001776 ) ) ;
#234 = CARTESIAN_POINT ( 'NONE',  ( 0.0000000000000000000, 12.69999999999998863, -1.800000000000000044 ) ) ;
#235 = LOCAL_TIME ( 11, 4, 45.00000000000000000, #300 ) ;
#236 = CARTESIAN_POINT ( 'NONE',  ( 0.0000000000000000000, 2.930048763603570199E-14, 1.442845476287586193 ) ) ;
#237 = CARTESIAN_POINT ( 'NONE',  ( 0.0000000000000000000, -1.757526626165081096E-14, 2.000000000000251354 ) ) ;
#238 = ORIENTED_EDGE ( 'NONE', *, *, #275, .T. ) ;
#239 = AXIS2_PLACEMENT_3D ( 'NONE', #41, #59, #210 ) ;
#240 = FACE_OUTER_BOUND ( 'NONE', #241, .T. ) ;
#241 = EDGE_LOOP ( 'NONE', ( #260, #73, #58, #10 ) ) ;
#242 = ORIENTED_EDGE ( 'NONE', *, *, #146, .F. ) ;
#243 = PERSON_AND_ORGANIZATION_ROLE ( 'design_owner' ) ;
#244 = APPROVAL_ROLE ( '' ) ;
#245 = VERTEX_POINT ( 'NONE', #39 ) ;
#246 = CLOSED_SHELL ( 'NONE', ( #19, #38, #106, #158, #15, #103, #68, #160, #196 ) ) ;
#247 = AXIS2_PLACEMENT_3D ( 'NONE', #233, #258, #85 ) ;
#248 = ORIENTED_EDGE ( 'NONE', *, *, #18, .T. ) ;
#249 = APPROVAL_DATE_TIME ( #114, #194 ) ;
#250 = EDGE_CURVE ( 'NONE', #137, #35, #175, .T. ) ;
#251 = ORIENTED_EDGE ( 'NONE', *, *, #18, .F. ) ;
#252 = DIRECTION ( 'NONE',  ( -0.0000000000000000000, 3.061515884555943146E-16, -1.000000000000000000 ) ) ;
#253 = SHAPE_DEFINITION_REPRESENTATION ( #256, #93 ) ;
#254 = AXIS2_PLACEMENT_3D ( 'NONE', #154, #126, #266 ) ;
#255 = CALENDAR_DATE ( 2019, 30, 5 ) ;
#256 = PRODUCT_DEFINITION_SHAPE ( 'NONE', 'NONE',  #187 ) ;
#257 = CARTESIAN_POINT ( 'NONE',  ( 0.0000000000000000000, 1.683588815234999875E-14, -138.4999999999996305 ) ) ;
#258 = DIRECTION ( 'NONE',  ( -0.0000000000000000000, 3.061515884555943146E-16, -1.000000000000000000 ) ) ;
#259 = ORIENTED_EDGE ( 'NONE', *, *, #64, .T. ) ;
#260 = ORIENTED_EDGE ( 'NONE', *, *, #48, .F. ) ;
#261 = DIRECTION ( 'NONE',  ( 0.0000000000000000000, 1.000000000000000000, -8.502876880280027871E-15 ) ) ;
#262 = CIRCLE ( 'NONE', #239, 140.4999999999998863 ) ;
#263 = VERTEX_POINT ( 'NONE', #192 ) ;
#264 = DIRECTION ( 'NONE',  ( -1.000000000000000000, 0.0000000000000000000, 0.0000000000000000000 ) ) ;
#265 = ORIENTED_EDGE ( 'NONE', *, *, #36, .F. ) ;
#266 = DIRECTION ( 'NONE',  ( 1.000000000000000000, 0.0000000000000000000, 0.0000000000000000000 ) ) ;
#267 = CC_DESIGN_APPROVAL ( #167, ( #297 ) ) ;
#268 = DIRECTION ( 'NONE',  ( 0.0000000000000000000, 0.0000000000000000000, 1.000000000000000000 ) ) ;
#269 = LOCAL_TIME ( 11, 4, 45.00000000000000000, #183 ) ;
#270 = CIRCLE ( 'NONE', #202, 12.69999999999998685 ) ;
#271 = PERSON_AND_ORGANIZATION ( #152, #209 ) ;
#272 = APPROVAL_PERSON_ORGANIZATION ( #50, #167, #291 ) ;
#273 = CC_DESIGN_PERSON_AND_ORGANIZATION_ASSIGNMENT ( #271, #111, ( #187 ) ) ;
#274 = VERTEX_POINT ( 'NONE', #237 ) ;
#275 = EDGE_CURVE ( 'NONE', #274, #137, #7, .T. ) ;
#276 = EDGE_LOOP ( 'NONE', ( #232, #248, #283, #265 ) ) ;
#277 = AXIS2_PLACEMENT_3D ( 'NONE', #107, #264, #268 ) ;
#278 = CARTESIAN_POINT ( 'NONE',  ( 0.0000000000000000000, 1.702108784019359894E-15, -1.799999999999891909 ) ) ;
#279 = CARTESIAN_POINT ( 'NONE',  ( 0.0000000000000000000, 12.69999999999998863, 1.242845476287479656 ) ) ;
#280 = PERSON_AND_ORGANIZATION ( #152, #209 ) ;
#281 = EDGE_LOOP ( 'NONE', ( #74, #177 ) ) ;
#282 = CARTESIAN_POINT ( 'NONE',  ( 0.0000000000000000000, 1.683588815234999875E-14, -138.4999999999996305 ) ) ;
#283 = ORIENTED_EDGE ( 'NONE', *, *, #22, .T. ) ;
#284 = DIRECTION ( 'NONE',  ( 0.0000000000000000000, 1.000000000000000000, 3.073328992872298832E-16 ) ) ;
#285 = PERSON_AND_ORGANIZATION ( #152, #209 ) ;
#286 = DIRECTION ( 'NONE',  ( -0.0000000000000000000, -8.510543920092029819E-15, -1.000000000000000000 ) ) ;
#287 = PLANE ( 'NONE',  #247 ) ;
#288 = DIRECTION ( 'NONE',  ( -0.0000000000000000000, -8.510543920092029819E-15, -1.000000000000000000 ) ) ;
#289 = CIRCLE ( 'NONE', #180, 12.49999999999999289 ) ;
#290 = ORIENTED_EDGE ( 'NONE', *, *, #250, .F. ) ;
#291 = APPROVAL_ROLE ( '' ) ;
#292 = CC_DESIGN_DATE_AND_TIME_ASSIGNMENT ( #222, #90, ( #187 ) ) ;
#293 =( NAMED_UNIT ( * ) SI_UNIT ( $, .STERADIAN. ) SOLID_ANGLE_UNIT ( ) );
#294 = LOCAL_TIME ( 11, 4, 45.00000000000000000, #124 ) ;
#295 = APPROVAL_STATUS ( 'not_yet_approved' ) ;
#296 = SECURITY_CLASSIFICATION_LEVEL ( 'unclassified' ) ;
#297 = SECURITY_CLASSIFICATION ( '', '', #296 ) ;
#298 = APPROVAL_DATE_TIME ( #172, #112 ) ;
#299 = LINE ( 'NONE', #12, #100 ) ;
#300 = COORDINATED_UNIVERSAL_TIME_OFFSET ( 5, 0, .BEHIND. ) ;
#301 = ORIENTED_EDGE ( 'NONE', *, *, #146, .T. ) ;
ENDSEC;
END-ISO-10303-21;
