ISO-10303-21;
HEADER;
FILE_DESCRIPTION (( 'STEP AP203' ),
    '1' );
FILE_NAME ('Web Model 45464_11922.step',
    '2019-01-07T15:36:42',
    ( '' ),
    ( '' ),
    'SwSTEP 2.0',
    'SolidWorks 2016',
    '' );
FILE_SCHEMA (( 'CONFIG_CONTROL_DESIGN' ));
ENDSEC;

DATA;
#1 = DIRECTION ( 'NONE',  ( -1.000000000000000000, 0.0000000000000000000, 0.0000000000000000000 ) ) ;
#2 = DIRECTION ( 'NONE',  ( 0.0000000000000000000, 0.0000000000000000000, 1.000000000000000000 ) ) ;
#3 = ORIENTED_EDGE ( 'NONE', *, *, #146, .T. ) ;
#4 = APPROVAL_PERSON_ORGANIZATION ( #122, #110, #68 ) ;
#5 = CALENDAR_DATE ( 2019, 7, 1 ) ;
#6 = CARTESIAN_POINT ( 'NONE',  ( -10.00000000000000000, 0.0000000000000000000, -1.000000000000000000 ) ) ;
#7 =( LENGTH_UNIT ( ) NAMED_UNIT ( * ) SI_UNIT ( .MILLI., .METRE. ) );
#8 = ADVANCED_FACE ( 'NONE', ( #131 ), #61, .T. ) ;
#9 = ORIENTED_EDGE ( 'NONE', *, *, #121, .T. ) ;
#10 = DATE_TIME_ROLE ( 'classification_date' ) ;
#11 = AXIS2_PLACEMENT_3D ( 'NONE', #125, #67, #87 ) ;
#12 = APPROVAL_PERSON_ORGANIZATION ( #70, #48, #143 ) ;
#13 = CC_DESIGN_APPROVAL ( #48, ( #22 ) ) ;
#14 = ORIENTED_EDGE ( 'NONE', *, *, #121, .F. ) ;
#15 = LOCAL_TIME ( 10, 36, 42.00000000000000000, #50 ) ;
#16 = PRODUCT_DEFINITION_SHAPE ( 'NONE', 'NONE',  #165 ) ;
#17 = CIRCLE ( 'NONE', #117, 10.00000000000000000 ) ;
#18 = CC_DESIGN_DATE_AND_TIME_ASSIGNMENT ( #144, #173, ( #165 ) ) ;
#19 = PERSON_AND_ORGANIZATION_ROLE ( 'design_owner' ) ;
#20 = LINE ( 'NONE', #106, #156 ) ;
#21 = DIRECTION ( 'NONE',  ( 0.0000000000000000000, 0.0000000000000000000, 1.000000000000000000 ) ) ;
#22 = PRODUCT_DEFINITION_FORMATION_WITH_SPECIFIED_SOURCE ( 'ANY', '', #137, .NOT_KNOWN. ) ;
#23 = CARTESIAN_POINT ( 'NONE',  ( 0.0000000000000000000, 0.0000000000000000000, 1.000000000000000000 ) ) ;
#24 = DIRECTION ( 'NONE',  ( 1.000000000000000000, 0.0000000000000000000, -0.0000000000000000000 ) ) ;
#25 = AXIS2_PLACEMENT_3D ( 'NONE', #72, #170, #84 ) ;
#26 = COORDINATED_UNIVERSAL_TIME_OFFSET ( 5, 0, .BEHIND. ) ;
#27 = CC_DESIGN_APPROVAL ( #66, ( #42 ) ) ;
#28 = APPROVAL_STATUS ( 'not_yet_approved' ) ;
#29 = ORIENTED_EDGE ( 'NONE', *, *, #136, .T. ) ;
#30 = ADVANCED_FACE ( 'NONE', ( #174 ), #149, .F. ) ;
#31 = VERTEX_POINT ( 'NONE', #54 ) ;
#32 = CC_DESIGN_PERSON_AND_ORGANIZATION_ASSIGNMENT ( #112, #59, ( #22 ) ) ;
#33 =( NAMED_UNIT ( * ) SI_UNIT ( $, .STERADIAN. ) SOLID_ANGLE_UNIT ( ) );
#34 = CC_DESIGN_PERSON_AND_ORGANIZATION_ASSIGNMENT ( #160, #19, ( #137 ) ) ;
#35 = LOCAL_TIME ( 10, 36, 42.00000000000000000, #105 ) ;
#36 = CARTESIAN_POINT ( 'NONE',  ( 0.0000000000000000000, 0.0000000000000000000, -1.000000000000000000 ) ) ;
#37 = CARTESIAN_POINT ( 'NONE',  ( 0.0000000000000000000, 0.0000000000000000000, -1.000000000000000000 ) ) ;
#38 = DIRECTION ( 'NONE',  ( 1.000000000000000000, 0.0000000000000000000, 0.0000000000000000000 ) ) ;
#39 = CC_DESIGN_SECURITY_CLASSIFICATION ( #42, ( #22 ) ) ;
#40 = EDGE_CURVE ( 'NONE', #75, #152, #20, .T. ) ;
#41 = APPROVAL_STATUS ( 'not_yet_approved' ) ;
#42 = SECURITY_CLASSIFICATION ( '', '', #168 ) ;
#43 = COORDINATED_UNIVERSAL_TIME_OFFSET ( 5, 0, .BEHIND. ) ;
#44 = CARTESIAN_POINT ( 'NONE',  ( 10.00000000000000000, 1.224646799147353300E-015, 1.000000000000000000 ) ) ;
#45 = ADVANCED_FACE ( 'NONE', ( #134 ), #80, .T. ) ;
#46 = CARTESIAN_POINT ( 'NONE',  ( 0.0000000000000000000, 0.0000000000000000000, -1.000000000000000000 ) ) ;
#47 = COORDINATED_UNIVERSAL_TIME_OFFSET ( 5, 0, .BEHIND. ) ;
#48 = APPROVAL ( #28, 'UNSPECIFIED' ) ;
#49 = APPLICATION_CONTEXT ( 'configuration controlled 3d designs of mechanical parts and assemblies' ) ;
#50 = COORDINATED_UNIVERSAL_TIME_OFFSET ( 5, 0, .BEHIND. ) ;
#51 = AXIS2_PLACEMENT_3D ( 'NONE', #130, #162, #1 ) ;
#52 = APPROVAL_DATE_TIME ( #86, #110 ) ;
#53 = ORIENTED_EDGE ( 'NONE', *, *, #60, .T. ) ;
#54 = CARTESIAN_POINT ( 'NONE',  ( 10.00000000000000000, 1.224646799147353300E-015, -1.000000000000000000 ) ) ;
#55 = ORGANIZATION ( 'UNSPECIFIED', 'UNSPECIFIED', '' ) ;
#56 = CALENDAR_DATE ( 2019, 7, 1 ) ;
#57 = CC_DESIGN_PERSON_AND_ORGANIZATION_ASSIGNMENT ( #142, #153, ( #42 ) ) ;
#58 = ADVANCED_FACE ( 'NONE', ( #116 ), #100, .T. ) ;
#59 = PERSON_AND_ORGANIZATION_ROLE ( 'design_supplier' ) ;
#60 = EDGE_CURVE ( 'NONE', #31, #152, #17, .T. ) ;
#61 = CYLINDRICAL_SURFACE ( 'NONE', #90, 10.00000000000000000 ) ;
#62 = EDGE_LOOP ( 'NONE', ( #135, #94, #127, #9 ) ) ;
#63 = DATE_AND_TIME ( #56, #111 ) ;
#64 = APPROVAL_PERSON_ORGANIZATION ( #140, #66, #102 ) ;
#65 = ORIENTED_EDGE ( 'NONE', *, *, #40, .F. ) ;
#66 = APPROVAL ( #138, 'UNSPECIFIED' ) ;
#67 = DIRECTION ( 'NONE',  ( 0.0000000000000000000, 0.0000000000000000000, 1.000000000000000000 ) ) ;
#68 = APPROVAL_ROLE ( '' ) ;
#69 = AXIS2_PLACEMENT_3D ( 'NONE', #36, #2, #163 ) ;
#70 = PERSON_AND_ORGANIZATION ( #154, #55 ) ;
#71 = ORIENTED_EDGE ( 'NONE', *, *, #60, .F. ) ;
#72 = CARTESIAN_POINT ( 'NONE',  ( 0.0000000000000000000, 0.0000000000000000000, 1.000000000000000000 ) ) ;
#73 = CALENDAR_DATE ( 2019, 7, 1 ) ;
#74 = ADVANCED_BREP_SHAPE_REPRESENTATION ( 'Web Model 45464_11922', ( #172, #11 ), #158 ) ;
#75 = VERTEX_POINT ( 'NONE', #132 ) ;
#76 = UNCERTAINTY_MEASURE_WITH_UNIT (LENGTH_MEASURE( 1.000000000000000100E-005 ), #7, 'distance_accuracy_value', 'NONE');
#77 = EDGE_CURVE ( 'NONE', #104, #75, #171, .T. ) ;
#78 = DATE_AND_TIME ( #73, #113 ) ;
#79 = SHAPE_DEFINITION_REPRESENTATION ( #16, #74 ) ;
#80 = PLANE ( 'NONE',  #151 ) ;
#81 = CALENDAR_DATE ( 2019, 7, 1 ) ;
#82 = VECTOR ( 'NONE', #85, 1000.000000000000000 ) ;
#83 = CARTESIAN_POINT ( 'NONE',  ( 0.0000000000000000000, 0.0000000000000000000, 1.000000000000000000 ) ) ;
#84 = DIRECTION ( 'NONE',  ( 1.000000000000000000, 0.0000000000000000000, 0.0000000000000000000 ) ) ;
#85 = DIRECTION ( 'NONE',  ( -0.0000000000000000000, -0.0000000000000000000, -1.000000000000000000 ) ) ;
#86 = DATE_AND_TIME ( #103, #15 ) ;
#87 = DIRECTION ( 'NONE',  ( 1.000000000000000000, 0.0000000000000000000, 0.0000000000000000000 ) ) ;
#88 = PERSON_AND_ORGANIZATION_ROLE ( 'creator' ) ;
#89 = DATE_AND_TIME ( #5, #35 ) ;
#90 = AXIS2_PLACEMENT_3D ( 'NONE', #23, #147, #161 ) ;
#91 = CIRCLE ( 'NONE', #159, 10.00000000000000000 ) ;
#92 = PRODUCT_RELATED_PRODUCT_CATEGORY ( 'detail', '', ( #137 ) ) ;
#93 = CARTESIAN_POINT ( 'NONE',  ( 10.00000000000000000, 1.224646799147353300E-015, 1.000000000000000000 ) ) ;
#94 = ORIENTED_EDGE ( 'NONE', *, *, #136, .F. ) ;
#95 = DESIGN_CONTEXT ( 'detailed design', #164, 'design' ) ;
#96 = LINE ( 'NONE', #44, #82 ) ;
#97 = CC_DESIGN_PERSON_AND_ORGANIZATION_ASSIGNMENT ( #157, #88, ( #165 ) ) ;
#98 = APPLICATION_PROTOCOL_DEFINITION ( 'international standard', 'config_control_design', 1994, #49 ) ;
#99 = AXIS2_PLACEMENT_3D ( 'NONE', #83, #141, #139 ) ;
#100 = CYLINDRICAL_SURFACE ( 'NONE', #51, 10.00000000000000000 ) ;
#101 = EDGE_LOOP ( 'NONE', ( #167, #3, #53, #65 ) ) ;
#102 = APPROVAL_ROLE ( '' ) ;
#103 = CALENDAR_DATE ( 2019, 7, 1 ) ;
#104 = VERTEX_POINT ( 'NONE', #93 ) ;
#105 = COORDINATED_UNIVERSAL_TIME_OFFSET ( 5, 0, .BEHIND. ) ;
#106 = CARTESIAN_POINT ( 'NONE',  ( -10.00000000000000000, 0.0000000000000000000, 1.000000000000000000 ) ) ;
#107 = CC_DESIGN_APPROVAL ( #110, ( #165 ) ) ;
#108 = APPROVAL_DATE_TIME ( #78, #48 ) ;
#109 = ORIENTED_EDGE ( 'NONE', *, *, #77, .T. ) ;
#110 = APPROVAL ( #41, 'UNSPECIFIED' ) ;
#111 = LOCAL_TIME ( 10, 36, 42.00000000000000000, #26 ) ;
#112 = PERSON_AND_ORGANIZATION ( #154, #55 ) ;
#113 = LOCAL_TIME ( 10, 36, 42.00000000000000000, #47 ) ;
#114 = PERSON_AND_ORGANIZATION_ROLE ( 'creator' ) ;
#115 = APPROVAL_DATE_TIME ( #63, #66 ) ;
#116 = FACE_OUTER_BOUND ( 'NONE', #101, .T. ) ;
#117 = AXIS2_PLACEMENT_3D ( 'NONE', #37, #120, #38 ) ;
#118 = CARTESIAN_POINT ( 'NONE',  ( 0.0000000000000000000, 0.0000000000000000000, 1.000000000000000000 ) ) ;
#119 = EDGE_LOOP ( 'NONE', ( #14, #71 ) ) ;
#120 = DIRECTION ( 'NONE',  ( 0.0000000000000000000, 0.0000000000000000000, 1.000000000000000000 ) ) ;
#121 = EDGE_CURVE ( 'NONE', #152, #31, #91, .T. ) ;
#122 = PERSON_AND_ORGANIZATION ( #154, #55 ) ;
#123 = EDGE_LOOP ( 'NONE', ( #29, #109 ) ) ;
#124 = APPLICATION_PROTOCOL_DEFINITION ( 'international standard', 'config_control_design', 1994, #164 ) ;
#125 = CARTESIAN_POINT ( 'NONE',  ( 0.0000000000000000000, 0.0000000000000000000, 0.0000000000000000000 ) ) ;
#126 = CIRCLE ( 'NONE', #25, 10.00000000000000000 ) ;
#127 = ORIENTED_EDGE ( 'NONE', *, *, #40, .T. ) ;
#128 = CC_DESIGN_DATE_AND_TIME_ASSIGNMENT ( #89, #10, ( #42 ) ) ;
#129 = DIRECTION ( 'NONE',  ( 0.0000000000000000000, 0.0000000000000000000, 1.000000000000000000 ) ) ;
#130 = CARTESIAN_POINT ( 'NONE',  ( 0.0000000000000000000, 0.0000000000000000000, 1.000000000000000000 ) ) ;
#131 = FACE_OUTER_BOUND ( 'NONE', #62, .T. ) ;
#132 = CARTESIAN_POINT ( 'NONE',  ( -10.00000000000000000, 0.0000000000000000000, 1.000000000000000000 ) ) ;
#133 = DIRECTION ( 'NONE',  ( -0.0000000000000000000, -0.0000000000000000000, -1.000000000000000000 ) ) ;
#134 = FACE_OUTER_BOUND ( 'NONE', #123, .T. ) ;
#135 = ORIENTED_EDGE ( 'NONE', *, *, #146, .F. ) ;
#136 = EDGE_CURVE ( 'NONE', #75, #104, #126, .T. ) ;
#137 = PRODUCT ( 'Web Model 45464_11922', 'Web Model 45464_11922', '', ( #166 ) ) ;
#138 = APPROVAL_STATUS ( 'not_yet_approved' ) ;
#139 = DIRECTION ( 'NONE',  ( 1.000000000000000000, 0.0000000000000000000, 0.0000000000000000000 ) ) ;
#140 = PERSON_AND_ORGANIZATION ( #154, #55 ) ;
#141 = DIRECTION ( 'NONE',  ( 0.0000000000000000000, 0.0000000000000000000, 1.000000000000000000 ) ) ;
#142 = PERSON_AND_ORGANIZATION ( #154, #55 ) ;
#143 = APPROVAL_ROLE ( '' ) ;
#144 = DATE_AND_TIME ( #81, #145 ) ;
#145 = LOCAL_TIME ( 10, 36, 42.00000000000000000, #43 ) ;
#146 = EDGE_CURVE ( 'NONE', #104, #31, #96, .T. ) ;
#147 = DIRECTION ( 'NONE',  ( -0.0000000000000000000, -0.0000000000000000000, -1.000000000000000000 ) ) ;
#148 = CC_DESIGN_PERSON_AND_ORGANIZATION_ASSIGNMENT ( #150, #114, ( #22 ) ) ;
#149 = PLANE ( 'NONE',  #69 ) ;
#150 = PERSON_AND_ORGANIZATION ( #154, #55 ) ;
#151 = AXIS2_PLACEMENT_3D ( 'NONE', #118, #129, #24 ) ;
#152 = VERTEX_POINT ( 'NONE', #6 ) ;
#153 = PERSON_AND_ORGANIZATION_ROLE ( 'classification_officer' ) ;
#154 = PERSON ( 'UNSPECIFIED', 'UNSPECIFIED', 'UNSPECIFIED', ('UNSPECIFIED'), ('UNSPECIFIED'), ('UNSPECIFIED') ) ;
#155 =( NAMED_UNIT ( * ) PLANE_ANGLE_UNIT ( ) SI_UNIT ( $, .RADIAN. ) );
#156 = VECTOR ( 'NONE', #133, 1000.000000000000000 ) ;
#157 = PERSON_AND_ORGANIZATION ( #154, #55 ) ;
#158 =( GEOMETRIC_REPRESENTATION_CONTEXT ( 3 ) GLOBAL_UNCERTAINTY_ASSIGNED_CONTEXT ( ( #76 ) ) GLOBAL_UNIT_ASSIGNED_CONTEXT ( ( #7, #155, #33 ) ) REPRESENTATION_CONTEXT ( 'NONE', 'WORKASPACE' ) );
#159 = AXIS2_PLACEMENT_3D ( 'NONE', #46, #21, #169 ) ;
#160 = PERSON_AND_ORGANIZATION ( #154, #55 ) ;
#161 = DIRECTION ( 'NONE',  ( -1.000000000000000000, 0.0000000000000000000, 0.0000000000000000000 ) ) ;
#162 = DIRECTION ( 'NONE',  ( -0.0000000000000000000, -0.0000000000000000000, -1.000000000000000000 ) ) ;
#163 = DIRECTION ( 'NONE',  ( 1.000000000000000000, 0.0000000000000000000, -0.0000000000000000000 ) ) ;
#164 = APPLICATION_CONTEXT ( 'configuration controlled 3d designs of mechanical parts and assemblies' ) ;
#165 = PRODUCT_DEFINITION ( 'UNKNOWN', '', #22, #95 ) ;
#166 = MECHANICAL_CONTEXT ( 'NONE', #49, 'mechanical' ) ;
#167 = ORIENTED_EDGE ( 'NONE', *, *, #77, .F. ) ;
#168 = SECURITY_CLASSIFICATION_LEVEL ( 'unclassified' ) ;
#169 = DIRECTION ( 'NONE',  ( 1.000000000000000000, 0.0000000000000000000, 0.0000000000000000000 ) ) ;
#170 = DIRECTION ( 'NONE',  ( 0.0000000000000000000, 0.0000000000000000000, 1.000000000000000000 ) ) ;
#171 = CIRCLE ( 'NONE', #99, 10.00000000000000000 ) ;
#172 = MANIFOLD_SOLID_BREP ( 'Boss-Extrude1', #175 ) ;
#173 = DATE_TIME_ROLE ( 'creation_date' ) ;
#174 = FACE_OUTER_BOUND ( 'NONE', #119, .T. ) ;
#175 = CLOSED_SHELL ( 'NONE', ( #58, #8, #45, #30 ) ) ;
ENDSEC;
END-ISO-10303-21;
