ISO-10303-21;
HEADER;
FILE_DESCRIPTION (( 'STEP AP203' ),
    '1' );
FILE_NAME ('20182-E0W.STEP',
    '2018-06-01T18:09:58',
    ( 'admin' ),
    ( '' ),
    'SwSTEP 2.0',
    'SolidWorks 2016',
    '' );
FILE_SCHEMA (( 'CONFIG_CONTROL_DESIGN' ));
ENDSEC;

DATA;
#1 = DIRECTION ( 'NONE',  ( 0.0000000000000000000, 1.000000000000000000, 1.771934091906849000E-016 ) ) ;
#2 = CARTESIAN_POINT ( 'NONE',  ( 0.0000000000000000000, 1.292873148000521900E-017, -0.05736570293392788400 ) ) ;
#3 = VERTEX_POINT ( 'NONE', #303 ) ;
#4 = FACE_OUTER_BOUND ( 'NONE', #107, .T. ) ;
#5 = DATE_AND_TIME ( #7, #215 ) ;
#6 = EDGE_CURVE ( 'NONE', #63, #157, #49, .T. ) ;
#7 = CALENDAR_DATE ( 2018, 1, 6 ) ;
#8 = LOCAL_TIME ( 14, 9, 58.00000000000000000, #66 ) ;
#9 = SPHERICAL_SURFACE ( 'NONE', #145, 0.3854330708661421500 ) ;
#10 = FACE_OUTER_BOUND ( 'NONE', #144, .T. ) ;
#11 = DIRECTION ( 'NONE',  ( -0.0000000000000000000, -1.836909530733573000E-016, 1.000000000000000000 ) ) ;
#12 = APPROVAL ( #133, 'UNSPECIFIED' ) ;
#13 = ADVANCED_FACE ( 'NONE', ( #274 ), #67, .T. ) ;
#14 = APPROVAL_DATE_TIME ( #17, #95 ) ;
#15 = COORDINATED_UNIVERSAL_TIME_OFFSET ( 5, 0, .BEHIND. ) ;
#16 = ORIENTED_EDGE ( 'NONE', *, *, #283, .F. ) ;
#17 = DATE_AND_TIME ( #52, #257 ) ;
#18 = AXIS2_PLACEMENT_3D ( 'NONE', #237, #173, #243 ) ;
#19 = SPHERICAL_SURFACE ( 'NONE', #236, 0.8040551181102361100 ) ;
#20 = PERSON_AND_ORGANIZATION ( #136, #26 ) ;
#21 = DIRECTION ( 'NONE',  ( -0.0000000000000000000, -1.836909530733565600E-016, 1.000000000000000000 ) ) ;
#22 = APPROVAL_PERSON_ORGANIZATION ( #20, #95, #247 ) ;
#23 = DIRECTION ( 'NONE',  ( 0.0000000000000000000, 1.836909530733565600E-016, -1.000000000000000000 ) ) ;
#24 = PERSON_AND_ORGANIZATION_ROLE ( 'creator' ) ;
#25 = CC_DESIGN_APPROVAL ( #12, ( #323 ) ) ;
#26 = ORGANIZATION ( 'UNSPECIFIED', 'UNSPECIFIED', '' ) ;
#27 = FACE_OUTER_BOUND ( 'NONE', #134, .T. ) ;
#28 = SHAPE_DEFINITION_REPRESENTATION ( #138, #149 ) ;
#29 = EDGE_LOOP ( 'NONE', ( #269, #208, #256, #41 ) ) ;
#30 = CARTESIAN_POINT ( 'NONE',  ( 0.0000000000000000000, -1.503559224456119800E-017, 0.09487001285224328000 ) ) ;
#31 = ADVANCED_FACE ( 'NONE', ( #216 ), #19, .T. ) ;
#32 = CARTESIAN_POINT ( 'NONE',  ( 0.0000000000000000000, 0.0000000000000000000, 0.3984504285222599800 ) ) ;
#33 = LOCAL_TIME ( 14, 9, 58.00000000000000000, #15 ) ;
#34 = ORIENTED_EDGE ( 'NONE', *, *, #76, .F. ) ;
#35 = DIRECTION ( 'NONE',  ( 0.0000000000000000000, -1.000000000000000000, -1.698793983231462000E-016 ) ) ;
#36 = ADVANCED_FACE ( 'NONE', ( #27 ), #153, .T. ) ;
#37 = DIRECTION ( 'NONE',  ( -0.0000000000000000000, -1.836909530733573000E-016, 1.000000000000000000 ) ) ;
#38 = AXIS2_PLACEMENT_3D ( 'NONE', #32, #327, #250 ) ;
#39 = DIRECTION ( 'NONE',  ( 0.0000000000000000000, 1.000000000000000000, 1.771934091906849000E-016 ) ) ;
#40 = PERSON_AND_ORGANIZATION_ROLE ( 'creator' ) ;
#41 = ORIENTED_EDGE ( 'NONE', *, *, #150, .F. ) ;
#42 = DIRECTION ( 'NONE',  ( 0.0000000000000000000, -1.000000000000000000, -1.878145495644180300E-016 ) ) ;
#43 = FACE_OUTER_BOUND ( 'NONE', #286, .T. ) ;
#44 = EDGE_CURVE ( 'NONE', #3, #63, #77, .T. ) ;
#45 = ORIENTED_EDGE ( 'NONE', *, *, #226, .T. ) ;
#46 = DIRECTION ( 'NONE',  ( 8.659560562355013000E-017, -0.7071067811865539000, -0.7071067811865411300 ) ) ;
#47 = CC_DESIGN_PERSON_AND_ORGANIZATION_ASSIGNMENT ( #270, #24, ( #323 ) ) ;
#48 = DIRECTION ( 'NONE',  ( 0.0000000000000000000, -1.000000000000000000, -1.878145495644180300E-016 ) ) ;
#49 = CIRCLE ( 'NONE', #187, 0.2500000000000000600 ) ;
#50 = AXIS2_PLACEMENT_3D ( 'NONE', #30, #23, #291 ) ;
#51 = CARTESIAN_POINT ( 'NONE',  ( 0.0000000000000000000, -0.2500000000000000600, -0.05736570293392793300 ) ) ;
#52 = CALENDAR_DATE ( 2018, 1, 6 ) ;
#53 = DIRECTION ( 'NONE',  ( 1.000000000000000000, 0.0000000000000000000, 0.0000000000000000000 ) ) ;
#54 = DIRECTION ( 'NONE',  ( 1.000000000000000000, -1.224646799147353200E-016, -2.249565377136127700E-032 ) ) ;
#55 = PERSON_AND_ORGANIZATION ( #136, #26 ) ;
#56 = CALENDAR_DATE ( 2018, 1, 6 ) ;
#57 = EDGE_CURVE ( 'NONE', #248, #304, #185, .T. ) ;
#58 = DIRECTION ( 'NONE',  ( 0.0000000000000000000, -1.000000000000000000, -1.698793983231462000E-016 ) ) ;
#59 = CARTESIAN_POINT ( 'NONE',  ( 0.0000000000000000000, -1.605834120960677700E-017, 0.1004377827828459600 ) ) ;
#60 = LINE ( 'NONE', #171, #221 ) ;
#61 = CARTESIAN_POINT ( 'NONE',  ( 0.0000000000000000000, -1.503559224456119800E-017, 0.09487001285224328000 ) ) ;
#62 = DATE_TIME_ROLE ( 'classification_date' ) ;
#63 = VERTEX_POINT ( 'NONE', #207 ) ;
#64 = CC_DESIGN_DATE_AND_TIME_ASSIGNMENT ( #5, #112, ( #323 ) ) ;
#65 =( CONVERSION_BASED_UNIT ( 'INCH', #124 ) LENGTH_UNIT ( ) NAMED_UNIT ( #92 ) );
#66 = COORDINATED_UNIVERSAL_TIME_OFFSET ( 5, 0, .BEHIND. ) ;
#67 = CONICAL_SURFACE ( 'NONE', #202, 0.2500000000000000600, 0.7853981633974574900 ) ;
#68 = AXIS2_PLACEMENT_3D ( 'NONE', #324, #235, #39 ) ;
#69 = PERSON_AND_ORGANIZATION ( #136, #26 ) ;
#70 = CARTESIAN_POINT ( 'NONE',  ( 0.0000000000000000000, -0.2500000000000000600, 0.09487001285224323800 ) ) ;
#71 = CARTESIAN_POINT ( 'NONE',  ( 0.0000000000000000000, 0.2500000000000000600, 0.09487001285224333500 ) ) ;
#72 = CARTESIAN_POINT ( 'NONE',  ( 0.0000000000000000000, 1.408170631545810000E-016, -0.06763546599460620900 ) ) ;
#73 = CIRCLE ( 'NONE', #165, 0.3854330708661421500 ) ;
#74 = EDGE_LOOP ( 'NONE', ( #232, #120, #314, #34 ) ) ;
#75 = VERTEX_POINT ( 'NONE', #102 ) ;
#76 = EDGE_CURVE ( 'NONE', #248, #63, #231, .T. ) ;
#77 = LINE ( 'NONE', #100, #115 ) ;
#78 = CALENDAR_DATE ( 2018, 1, 6 ) ;
#79 = ORIENTED_EDGE ( 'NONE', *, *, #57, .T. ) ;
#80 = VECTOR ( 'NONE', #46, 39.37007874015748100 ) ;
#81 = PRODUCT_DEFINITION_FORMATION_WITH_SPECIFIED_SOURCE ( 'ANY', '', #318, .NOT_KNOWN. ) ;
#82 = SPHERICAL_SURFACE ( 'NONE', #68, 0.3854330708661421500 ) ;
#83 = DIRECTION ( 'NONE',  ( -0.0000000000000000000, -1.836909530733565600E-016, 1.000000000000000000 ) ) ;
#84 = VERTEX_POINT ( 'NONE', #241 ) ;
#85 = AXIS2_PLACEMENT_3D ( 'NONE', #244, #114, #42 ) ;
#86 = DIRECTION ( 'NONE',  ( 0.0000000000000000000, -1.000000000000000000, -2.048885995248196900E-016 ) ) ;
#87 = ORIENTED_EDGE ( 'NONE', *, *, #169, .F. ) ;
#88 = DIRECTION ( 'NONE',  ( 0.0000000000000000000, -1.000000000000000000, -1.759817246733674200E-016 ) ) ;
#89 = EDGE_CURVE ( 'NONE', #84, #75, #227, .T. ) ;
#90 = VECTOR ( 'NONE', #129, 39.37007874015748100 ) ;
#91 = DIRECTION ( 'NONE',  ( 0.0000000000000000000, 1.836909530733565600E-016, -1.000000000000000000 ) ) ;
#92 = DIMENSIONAL_EXPONENTS ( 1.000000000000000000, 0.0000000000000000000, 0.0000000000000000000, 0.0000000000000000000, 0.0000000000000000000, 0.0000000000000000000, 0.0000000000000000000 ) ;
#93 = EDGE_CURVE ( 'NONE', #75, #84, #329, .T. ) ;
#94 = CIRCLE ( 'NONE', #300, 0.2500000000000000600 ) ;
#95 = APPROVAL ( #317, 'UNSPECIFIED' ) ;
#96 = CARTESIAN_POINT ( 'NONE',  ( 0.0000000000000000000, 1.292873148000523100E-017, -0.05736570293392787700 ) ) ;
#97 = CARTESIAN_POINT ( 'NONE',  ( 0.0000000000000000000, 1.292873148000521900E-017, -0.05736570293392788400 ) ) ;
#98 = CARTESIAN_POINT ( 'NONE',  ( 0.0000000000000000000, -1.503559224456119800E-017, 0.09487001285224328000 ) ) ;
#99 = CARTESIAN_POINT ( 'NONE',  ( 0.0000000000000000000, 0.0000000000000000000, 0.0000000000000000000 ) ) ;
#100 = CARTESIAN_POINT ( 'NONE',  ( 3.061616997868383600E-017, 0.2500000000000000600, 0.01301735765611743700 ) ) ;
#101 = AXIS2_PLACEMENT_3D ( 'NONE', #290, #155, #48 ) ;
#102 = CARTESIAN_POINT ( 'NONE',  ( 2.970433530995547000E-017, 0.2425543048872278500, -0.06763546599460618100 ) ) ;
#103 = CONICAL_SURFACE ( 'NONE', #50, 0.2500000000000000600, 0.7853981633974574900 ) ;
#104 = DIRECTION ( 'NONE',  ( 0.0000000000000000000, -1.000000000000000000, -2.095556296592407100E-016 ) ) ;
#105 = ORIENTED_EDGE ( 'NONE', *, *, #44, .T. ) ;
#106 = DIRECTION ( 'NONE',  ( -0.0000000000000000000, -1.836909530733573000E-016, 1.000000000000000000 ) ) ;
#107 = EDGE_LOOP ( 'NONE', ( #305, #297, #158, #319 ) ) ;
#108 = ORIENTED_EDGE ( 'NONE', *, *, #233, .T. ) ;
#109 = UNCERTAINTY_MEASURE_WITH_UNIT (LENGTH_MEASURE( 1.000000000000000100E-005 ), #65, 'distance_accuracy_value', 'NONE');
#110 = CARTESIAN_POINT ( 'NONE',  ( -2.993431481629371500E-017, -0.2444322300693975200, 0.1004377827828459300 ) ) ;
#111 = EDGE_CURVE ( 'NONE', #201, #3, #94, .T. ) ;
#112 = DATE_TIME_ROLE ( 'creation_date' ) ;
#113 = CARTESIAN_POINT ( 'NONE',  ( 0.0000000000000000000, 0.0000000000000000000, 0.6989622395458809900 ) ) ;
#114 = DIRECTION ( 'NONE',  ( -0.0000000000000000000, -1.836909530733565600E-016, 1.000000000000000000 ) ) ;
#115 = VECTOR ( 'NONE', #285, 39.37007874015748100 ) ;
#116 = EDGE_CURVE ( 'NONE', #321, #84, #254, .T. ) ;
#117 = CC_DESIGN_APPROVAL ( #95, ( #81 ) ) ;
#118 = CARTESIAN_POINT ( 'NONE',  ( 0.0000000000000000000, -1.503559224456119800E-017, 0.09487001285224328000 ) ) ;
#119 = DIRECTION ( 'NONE',  ( 1.000000000000000000, 0.0000000000000000000, 0.0000000000000000000 ) ) ;
#120 = ORIENTED_EDGE ( 'NONE', *, *, #228, .T. ) ;
#121 = DIRECTION ( 'NONE',  ( 0.0000000000000000000, -1.000000000000000000, -1.707404996040164000E-016 ) ) ;
#122 = DIRECTION ( 'NONE',  ( 0.0000000000000000000, 0.0000000000000000000, 1.000000000000000000 ) ) ;
#123 = AXIS2_PLACEMENT_3D ( 'NONE', #113, #54, #160 ) ;
#124 = LENGTH_MEASURE_WITH_UNIT ( LENGTH_MEASURE( 0.02539999999999999900 ), #191 );
#125 = ORIENTED_EDGE ( 'NONE', *, *, #283, .T. ) ;
#126 = CARTESIAN_POINT ( 'NONE',  ( 0.0000000000000000000, 0.2444322300693976000, 0.1004377827828460100 ) ) ;
#127 = CARTESIAN_POINT ( 'NONE',  ( 0.0000000000000000000, 0.0000000000000000000, 0.3984504285222599800 ) ) ;
#128 = SPHERICAL_SURFACE ( 'NONE', #196, 0.8040551181102361100 ) ;
#129 = DIRECTION ( 'NONE',  ( 0.0000000000000000000, 0.7071067811865541200, -0.7071067811865409100 ) ) ;
#130 = DIRECTION ( 'NONE',  ( 0.0000000000000000000, -1.000000000000000000, -2.095556296592407100E-016 ) ) ;
#131 = EDGE_CURVE ( 'NONE', #3, #201, #214, .T. ) ;
#132 = CIRCLE ( 'NONE', #123, 0.8040551181102361100 ) ;
#133 = APPROVAL_STATUS ( 'not_yet_approved' ) ;
#134 = EDGE_LOOP ( 'NONE', ( #87, #186, #184, #206 ) ) ;
#135 = COORDINATED_UNIVERSAL_TIME_OFFSET ( 5, 0, .BEHIND. ) ;
#136 = PERSON ( 'UNSPECIFIED', 'UNSPECIFIED', 'UNSPECIFIED', ('UNSPECIFIED'), ('UNSPECIFIED'), ('UNSPECIFIED') ) ;
#137 = CC_DESIGN_PERSON_AND_ORGANIZATION_ASSIGNMENT ( #148, #40, ( #81 ) ) ;
#138 = PRODUCT_DEFINITION_SHAPE ( 'NONE', 'NONE',  #323 ) ;
#139 = EDGE_LOOP ( 'NONE', ( #170, #277, #125, #252 ) ) ;
#140 = CYLINDRICAL_SURFACE ( 'NONE', #101, 0.2500000000000000600 ) ;
#141 = PERSON_AND_ORGANIZATION_ROLE ( 'design_supplier' ) ;
#142 = ADVANCED_FACE ( 'NONE', ( #265 ), #211, .T. ) ;
#143 =( NAMED_UNIT ( * ) PLANE_ANGLE_UNIT ( ) SI_UNIT ( $, .RADIAN. ) );
#144 = EDGE_LOOP ( 'NONE', ( #146, #108, #79 ) ) ;
#145 = AXIS2_PLACEMENT_3D ( 'NONE', #293, #264, #1 ) ;
#146 = ORIENTED_EDGE ( 'NONE', *, *, #162, .F. ) ;
#147 = FACE_OUTER_BOUND ( 'NONE', #139, .T. ) ;
#148 = PERSON_AND_ORGANIZATION ( #136, #26 ) ;
#149 = ADVANCED_BREP_SHAPE_REPRESENTATION ( '20182-E0W', ( #222, #294 ), #229 ) ;
#150 = EDGE_CURVE ( 'NONE', #84, #201, #200, .T. ) ;
#151 = DATE_AND_TIME ( #78, #8 ) ;
#152 = CIRCLE ( 'NONE', #182, 0.2444322300693972700 ) ;
#153 = CONICAL_SURFACE ( 'NONE', #220, 0.2500000000000000600, 0.6273156529973793500 ) ;
#154 = DIRECTION ( 'NONE',  ( 0.0000000000000000000, 0.0000000000000000000, 1.000000000000000000 ) ) ;
#155 = DIRECTION ( 'NONE',  ( -0.0000000000000000000, -1.836909530733565600E-016, 1.000000000000000000 ) ) ;
#156 = CC_DESIGN_PERSON_AND_ORGANIZATION_ASSIGNMENT ( #69, #141, ( #81 ) ) ;
#157 = VERTEX_POINT ( 'NONE', #70 ) ;
#158 = ORIENTED_EDGE ( 'NONE', *, *, #76, .T. ) ;
#159 = DIRECTION ( 'NONE',  ( 0.0000000000000000000, 0.0000000000000000000, -1.000000000000000000 ) ) ;
#160 = DIRECTION ( 'NONE',  ( 1.224646799147353200E-016, 1.000000000000000000, 0.0000000000000000000 ) ) ;
#161 = DIRECTION ( 'NONE',  ( 1.000000000000000000, 0.0000000000000000000, 0.0000000000000000000 ) ) ;
#162 = EDGE_CURVE ( 'NONE', #190, #304, #302, .T. ) ;
#163 = CALENDAR_DATE ( 2018, 1, 6 ) ;
#164 = DIRECTION ( 'NONE',  ( -0.0000000000000000000, -1.836909530733565600E-016, 1.000000000000000000 ) ) ;
#165 = AXIS2_PLACEMENT_3D ( 'NONE', #127, #119, #159 ) ;
#166 = DIRECTION ( 'NONE',  ( 0.0000000000000000000, 1.000000000000000000, 2.048885995248196900E-016 ) ) ;
#167 = ORIENTED_EDGE ( 'NONE', *, *, #116, .F. ) ;
#168 = ADVANCED_FACE ( 'NONE', ( #147 ), #263, .T. ) ;
#169 = EDGE_CURVE ( 'NONE', #75, #3, #177, .T. ) ;
#170 = ORIENTED_EDGE ( 'NONE', *, *, #44, .F. ) ;
#171 = CARTESIAN_POINT ( 'NONE',  ( 0.0000000000000000000, -0.2500000000000000600, 0.01301735765611734300 ) ) ;
#172 = ORIENTED_EDGE ( 'NONE', *, *, #279, .T. ) ;
#173 = DIRECTION ( 'NONE',  ( -0.0000000000000000000, -1.836909530733573000E-016, 1.000000000000000000 ) ) ;
#174 = ADVANCED_FACE ( 'NONE', ( #43 ), #140, .T. ) ;
#175 = ADVANCED_FACE ( 'NONE', ( #238 ), #82, .F. ) ;
#176 = ADVANCED_FACE ( 'NONE', ( #4 ), #103, .T. ) ;
#177 = LINE ( 'NONE', #258, #272 ) ;
#178 = SECURITY_CLASSIFICATION ( '', '', #181 ) ;
#179 = PERSON_AND_ORGANIZATION_ROLE ( 'design_owner' ) ;
#180 = DIRECTION ( 'NONE',  ( -1.000000000000000000, 0.0000000000000000000, -0.0000000000000000000 ) ) ;
#181 = SECURITY_CLASSIFICATION_LEVEL ( 'unclassified' ) ;
#182 = AXIS2_PLACEMENT_3D ( 'NONE', #59, #164, #104 ) ;
#183 = FACE_OUTER_BOUND ( 'NONE', #188, .T. ) ;
#184 = ORIENTED_EDGE ( 'NONE', *, *, #150, .T. ) ;
#185 = CIRCLE ( 'NONE', #251, 0.2444322300693972700 ) ;
#186 = ORIENTED_EDGE ( 'NONE', *, *, #89, .F. ) ;
#187 = AXIS2_PLACEMENT_3D ( 'NONE', #98, #21, #86 ) ;
#188 = EDGE_LOOP ( 'NONE', ( #167, #45, #295 ) ) ;
#189 = DIRECTION ( 'NONE',  ( 0.0000000000000000000, -1.000000000000000000, -2.048885995248196900E-016 ) ) ;
#190 = VERTEX_POINT ( 'NONE', #306 ) ;
#191 =( LENGTH_UNIT ( ) NAMED_UNIT ( * ) SI_UNIT ( $, .METRE. ) );
#192 = CC_DESIGN_PERSON_AND_ORGANIZATION_ASSIGNMENT ( #325, #330, ( #178 ) ) ;
#193 = DIRECTION ( 'NONE',  ( 7.188353547802039800E-017, 0.5869736117227309900, 0.8096060641702064200 ) ) ;
#194 = DIRECTION ( 'NONE',  ( 0.0000000000000000000, 1.836909530733573000E-016, -1.000000000000000000 ) ) ;
#195 = APPROVAL_ROLE ( '' ) ;
#196 = AXIS2_PLACEMENT_3D ( 'NONE', #261, #161, #58 ) ;
#197 = ORIENTED_EDGE ( 'NONE', *, *, #89, .T. ) ;
#198 = ADVANCED_FACE ( 'NONE', ( #10 ), #9, .F. ) ;
#199 = EDGE_LOOP ( 'NONE', ( #234, #308, #197 ) ) ;
#200 = LINE ( 'NONE', #322, #275 ) ;
#201 = VERTEX_POINT ( 'NONE', #51 ) ;
#202 = AXIS2_PLACEMENT_3D ( 'NONE', #61, #91, #166 ) ;
#203 = LINE ( 'NONE', #296, #80 ) ;
#204 = APPROVAL_PERSON_ORGANIZATION ( #55, #12, #195 ) ;
#205 = CC_DESIGN_DATE_AND_TIME_ASSIGNMENT ( #151, #62, ( #178 ) ) ;
#206 = ORIENTED_EDGE ( 'NONE', *, *, #131, .F. ) ;
#207 = CARTESIAN_POINT ( 'NONE',  ( 3.061616997868383600E-017, 0.2500000000000000600, 0.09487001285224333500 ) ) ;
#208 = ORIENTED_EDGE ( 'NONE', *, *, #169, .T. ) ;
#209 = DIRECTION ( 'NONE',  ( 0.0000000000000000000, -1.000000000000000000, -1.759817246733674200E-016 ) ) ;
#210 = COORDINATED_UNIVERSAL_TIME_OFFSET ( 5, 0, .BEHIND. ) ;
#211 = CONICAL_SURFACE ( 'NONE', #18, 0.2500000000000000600, 0.6273156529973793500 ) ;
#212 = AXIS2_PLACEMENT_3D ( 'NONE', #118, #316, #189 ) ;
#213 = DIRECTION ( 'NONE',  ( 0.0000000000000000000, 1.836909530733573000E-016, -1.000000000000000000 ) ) ;
#214 = CIRCLE ( 'NONE', #328, 0.2500000000000000600 ) ;
#215 = LOCAL_TIME ( 14, 9, 58.00000000000000000, #313 ) ;
#216 = FACE_OUTER_BOUND ( 'NONE', #199, .T. ) ;
#217 = CARTESIAN_POINT ( 'NONE',  ( 0.0000000000000000000, 1.408170631545810000E-016, -0.06763546599460620900 ) ) ;
#218 = ORIENTED_EDGE ( 'NONE', *, *, #233, .F. ) ;
#219 = PERSON_AND_ORGANIZATION ( #136, #26 ) ;
#220 = AXIS2_PLACEMENT_3D ( 'NONE', #96, #37, #260 ) ;
#221 = VECTOR ( 'NONE', #83, 39.37007874015748100 ) ;
#222 = MANIFOLD_SOLID_BREP ( '20182-001-1-solid1', #315 ) ;
#223 = APPROVAL_ROLE ( '' ) ;
#224 = APPROVAL ( #230, 'UNSPECIFIED' ) ;
#225 = DATE_AND_TIME ( #163, #33 ) ;
#226 = EDGE_CURVE ( 'NONE', #321, #75, #132, .T. ) ;
#227 = CIRCLE ( 'NONE', #262, 0.2425543048872276500 ) ;
#228 = EDGE_CURVE ( 'NONE', #304, #157, #203, .T. ) ;
#229 =( GEOMETRIC_REPRESENTATION_CONTEXT ( 3 ) GLOBAL_UNCERTAINTY_ASSIGNED_CONTEXT ( ( #109 ) ) GLOBAL_UNIT_ASSIGNED_CONTEXT ( ( #65, #143, #309 ) ) REPRESENTATION_CONTEXT ( 'NONE', 'WORKASPACE' ) );
#230 = APPROVAL_STATUS ( 'not_yet_approved' ) ;
#231 = LINE ( 'NONE', #71, #90 ) ;
#232 = ORIENTED_EDGE ( 'NONE', *, *, #279, .F. ) ;
#233 = EDGE_CURVE ( 'NONE', #190, #248, #73, .T. ) ;
#234 = ORIENTED_EDGE ( 'NONE', *, *, #226, .F. ) ;
#235 = DIRECTION ( 'NONE',  ( -1.000000000000000000, 0.0000000000000000000, 0.0000000000000000000 ) ) ;
#236 = AXIS2_PLACEMENT_3D ( 'NONE', #240, #53, #35 ) ;
#237 = CARTESIAN_POINT ( 'NONE',  ( 0.0000000000000000000, 1.292873148000523100E-017, -0.05736570293392787700 ) ) ;
#238 = FACE_OUTER_BOUND ( 'NONE', #298, .T. ) ;
#239 = CC_DESIGN_APPROVAL ( #224, ( #178 ) ) ;
#240 = CARTESIAN_POINT ( 'NONE',  ( 0.0000000000000000000, 0.0000000000000000000, 0.6989622395458809900 ) ) ;
#241 = CARTESIAN_POINT ( 'NONE',  ( 0.0000000000000000000, -0.2425543048872276000, -0.06763546599460622300 ) ) ;
#242 = ADVANCED_FACE ( 'NONE', ( #183 ), #128, .T. ) ;
#243 = DIRECTION ( 'NONE',  ( 0.0000000000000000000, -1.000000000000000000, -1.707404996040164000E-016 ) ) ;
#244 = CARTESIAN_POINT ( 'NONE',  ( 0.0000000000000000000, 0.0000000000000000000, 0.01301735765611739000 ) ) ;
#245 = CIRCLE ( 'NONE', #212, 0.2500000000000000600 ) ;
#246 = DIRECTION ( 'NONE',  ( -0.0000000000000000000, -1.836909530733565600E-016, 1.000000000000000000 ) ) ;
#247 = APPROVAL_ROLE ( '' ) ;
#248 = VERTEX_POINT ( 'NONE', #126 ) ;
#249 = ORIENTED_EDGE ( 'NONE', *, *, #301, .F. ) ;
#250 = DIRECTION ( 'NONE',  ( -1.224646799147353500E-016, -1.000000000000000000, 0.0000000000000000000 ) ) ;
#251 = AXIS2_PLACEMENT_3D ( 'NONE', #310, #246, #130 ) ;
#252 = ORIENTED_EDGE ( 'NONE', *, *, #6, .F. ) ;
#253 = APPROVAL_DATE_TIME ( #280, #12 ) ;
#254 = CIRCLE ( 'NONE', #311, 0.8040551181102361100 ) ;
#255 = CC_DESIGN_SECURITY_CLASSIFICATION ( #178, ( #81 ) ) ;
#256 = ORIENTED_EDGE ( 'NONE', *, *, #111, .F. ) ;
#257 = LOCAL_TIME ( 14, 9, 58.00000000000000000, #210 ) ;
#258 = CARTESIAN_POINT ( 'NONE',  ( 3.061616997868383600E-017, 0.2500000000000000600, -0.05736570293392783500 ) ) ;
#259 = ORIENTED_EDGE ( 'NONE', *, *, #162, .T. ) ;
#260 = DIRECTION ( 'NONE',  ( 0.0000000000000000000, -1.000000000000000000, -1.707404996040164000E-016 ) ) ;
#261 = CARTESIAN_POINT ( 'NONE',  ( 0.0000000000000000000, 0.0000000000000000000, 0.6989622395458809900 ) ) ;
#262 = AXIS2_PLACEMENT_3D ( 'NONE', #72, #194, #88 ) ;
#263 = CYLINDRICAL_SURFACE ( 'NONE', #85, 0.2500000000000000600 ) ;
#264 = DIRECTION ( 'NONE',  ( -1.000000000000000000, 0.0000000000000000000, 0.0000000000000000000 ) ) ;
#265 = FACE_OUTER_BOUND ( 'NONE', #29, .T. ) ;
#266 = ORIENTED_EDGE ( 'NONE', *, *, #111, .T. ) ;
#267 = PRODUCT_RELATED_PRODUCT_CATEGORY ( 'detail', '', ( #318 ) ) ;
#268 = CARTESIAN_POINT ( 'NONE',  ( 0.0000000000000000000, 0.0000000000000000000, 0.6989622395458809900 ) ) ;
#269 = ORIENTED_EDGE ( 'NONE', *, *, #93, .F. ) ;
#270 = PERSON_AND_ORGANIZATION ( #136, #26 ) ;
#271 = CARTESIAN_POINT ( 'NONE',  ( 0.0000000000000000000, 9.846347463259217900E-017, -0.1050928785643551000 ) ) ;
#272 = VECTOR ( 'NONE', #193, 39.37007874015748900 ) ;
#273 = DIRECTION ( 'NONE',  ( 0.0000000000000000000, -0.5869736117227312100, 0.8096060641702063100 ) ) ;
#274 = FACE_OUTER_BOUND ( 'NONE', #74, .T. ) ;
#275 = VECTOR ( 'NONE', #273, 39.37007874015748900 ) ;
#276 = DESIGN_CONTEXT ( 'detailed design', #292, 'design' ) ;
#277 = ORIENTED_EDGE ( 'NONE', *, *, #131, .T. ) ;
#278 = APPROVAL_PERSON_ORGANIZATION ( #219, #224, #223 ) ;
#279 = EDGE_CURVE ( 'NONE', #304, #248, #152, .T. ) ;
#280 = DATE_AND_TIME ( #56, #320 ) ;
#281 = AXIS2_PLACEMENT_3D ( 'NONE', #217, #213, #209 ) ;
#282 = APPLICATION_PROTOCOL_DEFINITION ( 'international standard', 'config_control_design', 1994, #292 ) ;
#283 = EDGE_CURVE ( 'NONE', #201, #157, #60, .T. ) ;
#284 = PERSON_AND_ORGANIZATION ( #136, #26 ) ;
#285 = DIRECTION ( 'NONE',  ( -0.0000000000000000000, -1.836909530733565600E-016, 1.000000000000000000 ) ) ;
#286 = EDGE_LOOP ( 'NONE', ( #266, #105, #249, #16 ) ) ;
#287 = APPLICATION_PROTOCOL_DEFINITION ( 'international standard', 'config_control_design', 1994, #312 ) ;
#288 = MECHANICAL_CONTEXT ( 'NONE', #312, 'mechanical' ) ;
#289 = APPROVAL_DATE_TIME ( #225, #224 ) ;
#290 = CARTESIAN_POINT ( 'NONE',  ( 0.0000000000000000000, 0.0000000000000000000, 0.01301735765611739000 ) ) ;
#291 = DIRECTION ( 'NONE',  ( 0.0000000000000000000, 1.000000000000000000, 2.048885995248196900E-016 ) ) ;
#292 = APPLICATION_CONTEXT ( 'configuration controlled 3d designs of mechanical parts and assemblies' ) ;
#293 = CARTESIAN_POINT ( 'NONE',  ( 0.0000000000000000000, 0.0000000000000000000, 0.3984504285222599800 ) ) ;
#294 = AXIS2_PLACEMENT_3D ( 'NONE', #99, #154, #299 ) ;
#295 = ORIENTED_EDGE ( 'NONE', *, *, #93, .T. ) ;
#296 = CARTESIAN_POINT ( 'NONE',  ( 3.061616997868383600E-017, -0.2500000000000000600, 0.09487001285224323800 ) ) ;
#297 = ORIENTED_EDGE ( 'NONE', *, *, #57, .F. ) ;
#298 = EDGE_LOOP ( 'NONE', ( #218, #259, #172 ) ) ;
#299 = DIRECTION ( 'NONE',  ( 1.000000000000000000, 0.0000000000000000000, 0.0000000000000000000 ) ) ;
#300 = AXIS2_PLACEMENT_3D ( 'NONE', #97, #11, #326 ) ;
#301 = EDGE_CURVE ( 'NONE', #157, #63, #245, .T. ) ;
#302 = CIRCLE ( 'NONE', #38, 0.3854330708661421500 ) ;
#303 = CARTESIAN_POINT ( 'NONE',  ( 3.061616997868383600E-017, 0.2500000000000000600, -0.05736570293392784200 ) ) ;
#304 = VERTEX_POINT ( 'NONE', #110 ) ;
#305 = ORIENTED_EDGE ( 'NONE', *, *, #228, .F. ) ;
#306 = CARTESIAN_POINT ( 'NONE',  ( 0.0000000000000000000, 9.440153695948002400E-017, 0.01301735765611785000 ) ) ;
#307 = CC_DESIGN_PERSON_AND_ORGANIZATION_ASSIGNMENT ( #284, #179, ( #318 ) ) ;
#308 = ORIENTED_EDGE ( 'NONE', *, *, #116, .T. ) ;
#309 =( NAMED_UNIT ( * ) SI_UNIT ( $, .STERADIAN. ) SOLID_ANGLE_UNIT ( ) );
#310 = CARTESIAN_POINT ( 'NONE',  ( 0.0000000000000000000, -1.605834120960677700E-017, 0.1004377827828459600 ) ) ;
#311 = AXIS2_PLACEMENT_3D ( 'NONE', #268, #180, #122 ) ;
#312 = APPLICATION_CONTEXT ( 'configuration controlled 3d designs of mechanical parts and assemblies' ) ;
#313 = COORDINATED_UNIVERSAL_TIME_OFFSET ( 5, 0, .BEHIND. ) ;
#314 = ORIENTED_EDGE ( 'NONE', *, *, #301, .T. ) ;
#315 = CLOSED_SHELL ( 'NONE', ( #142, #13, #174, #242, #175, #198, #31, #168, #176, #36 ) ) ;
#316 = DIRECTION ( 'NONE',  ( -0.0000000000000000000, -1.836909530733565600E-016, 1.000000000000000000 ) ) ;
#317 = APPROVAL_STATUS ( 'not_yet_approved' ) ;
#318 = PRODUCT ( '20182-E0W', '20182-E0W', '', ( #288 ) ) ;
#319 = ORIENTED_EDGE ( 'NONE', *, *, #6, .T. ) ;
#320 = LOCAL_TIME ( 14, 9, 58.00000000000000000, #135 ) ;
#321 = VERTEX_POINT ( 'NONE', #271 ) ;
#322 = CARTESIAN_POINT ( 'NONE',  ( 0.0000000000000000000, -0.2500000000000000600, -0.05736570293392791900 ) ) ;
#323 = PRODUCT_DEFINITION ( 'UNKNOWN', '', #81, #276 ) ;
#324 = CARTESIAN_POINT ( 'NONE',  ( 0.0000000000000000000, 0.0000000000000000000, 0.3984504285222599800 ) ) ;
#325 = PERSON_AND_ORGANIZATION ( #136, #26 ) ;
#326 = DIRECTION ( 'NONE',  ( 0.0000000000000000000, -1.000000000000000000, -1.707404996040164000E-016 ) ) ;
#327 = DIRECTION ( 'NONE',  ( -1.000000000000000000, 1.224646799147353200E-016, 2.249565377136127700E-032 ) ) ;
#328 = AXIS2_PLACEMENT_3D ( 'NONE', #2, #106, #121 ) ;
#329 = CIRCLE ( 'NONE', #281, 0.2425543048872276500 ) ;
#330 = PERSON_AND_ORGANIZATION_ROLE ( 'classification_officer' ) ;
ENDSEC;
END-ISO-10303-21;
