ISO-10303-21;
HEADER;
FILE_DESCRIPTION (( 'STEP AP203' ),
    '1' );
FILE_NAME ('Web Model 37689_37721.step',
    '2018-08-03T18:46:37',
    ( '' ),
    ( '' ),
    'SwSTEP 2.0',
    'SolidWorks 2016',
    '' );
FILE_SCHEMA (( 'CONFIG_CONTROL_DESIGN' ));
ENDSEC;

DATA;
#1 = CARTESIAN_POINT ( 'NONE',  ( 0.0000000000000000000, 0.0000000000000000000, 3.174999999999999800 ) ) ;
#2 =( NAMED_UNIT ( * ) PLANE_ANGLE_UNIT ( ) SI_UNIT ( $, .RADIAN. ) );
#3 = DATE_AND_TIME ( #31, #66 ) ;
#4 = APPROVAL_STATUS ( 'not_yet_approved' ) ;
#5 = DATE_AND_TIME ( #143, #107 ) ;
#6 = CYLINDRICAL_SURFACE ( 'NONE', #131, 12.69999999999999900 ) ;
#7 = EDGE_CURVE ( 'NONE', #101, #138, #15, .T. ) ;
#8 = DIRECTION ( 'NONE',  ( -0.0000000000000000000, -0.0000000000000000000, -1.000000000000000000 ) ) ;
#9 = CARTESIAN_POINT ( 'NONE',  ( 0.0000000000000000000, 0.0000000000000000000, 3.174999999999999800 ) ) ;
#10 = DIRECTION ( 'NONE',  ( 0.0000000000000000000, 0.0000000000000000000, 1.000000000000000000 ) ) ;
#11 = APPROVAL_PERSON_ORGANIZATION ( #157, #37, #140 ) ;
#12 = ORIENTED_EDGE ( 'NONE', *, *, #26, .F. ) ;
#13 = COORDINATED_UNIVERSAL_TIME_OFFSET ( 5, 0, .BEHIND. ) ;
#14 = EDGE_LOOP ( 'NONE', ( #74, #32 ) ) ;
#15 = CIRCLE ( 'NONE', #100, 12.69999999999999900 ) ;
#16 = ORIENTED_EDGE ( 'NONE', *, *, #34, .F. ) ;
#17 = DIRECTION ( 'NONE',  ( 1.000000000000000000, 0.0000000000000000000, 0.0000000000000000000 ) ) ;
#18 = DIRECTION ( 'NONE',  ( 0.0000000000000000000, 0.0000000000000000000, 1.000000000000000000 ) ) ;
#19 =( LENGTH_UNIT ( ) NAMED_UNIT ( * ) SI_UNIT ( .MILLI., .METRE. ) );
#20 = PERSON_AND_ORGANIZATION ( #83, #129 ) ;
#21 = APPROVAL_ROLE ( '' ) ;
#22 = APPROVAL_STATUS ( 'not_yet_approved' ) ;
#23 = PERSON_AND_ORGANIZATION_ROLE ( 'creator' ) ;
#24 = DATE_AND_TIME ( #89, #99 ) ;
#25 = UNCERTAINTY_MEASURE_WITH_UNIT (LENGTH_MEASURE( 1.000000000000000100E-005 ), #19, 'distance_accuracy_value', 'NONE');
#26 = EDGE_CURVE ( 'NONE', #70, #53, #164, .T. ) ;
#27 = APPROVAL_DATE_TIME ( #5, #137 ) ;
#28 = FACE_OUTER_BOUND ( 'NONE', #145, .T. ) ;
#29 = DATE_TIME_ROLE ( 'classification_date' ) ;
#30 = CIRCLE ( 'NONE', #55, 12.69999999999999900 ) ;
#31 = CALENDAR_DATE ( 2018, 3, 8 ) ;
#32 = ORIENTED_EDGE ( 'NONE', *, *, #7, .T. ) ;
#33 = ORIENTED_EDGE ( 'NONE', *, *, #124, .F. ) ;
#34 = EDGE_CURVE ( 'NONE', #138, #53, #128, .T. ) ;
#35 = APPLICATION_PROTOCOL_DEFINITION ( 'international standard', 'config_control_design', 1994, #119 ) ;
#36 = CARTESIAN_POINT ( 'NONE',  ( 12.69999999999999900, 1.555301434917138400E-015, -3.174999999999999800 ) ) ;
#37 = APPROVAL ( #22, 'UNSPECIFIED' ) ;
#38 = ADVANCED_FACE ( 'NONE', ( #171 ), #79, .T. ) ;
#39 = VECTOR ( 'NONE', #118, 1000.000000000000000 ) ;
#40 = AXIS2_PLACEMENT_3D ( 'NONE', #87, #167, #106 ) ;
#41 = APPROVAL_PERSON_ORGANIZATION ( #111, #156, #67 ) ;
#42 = DIRECTION ( 'NONE',  ( 0.0000000000000000000, 0.0000000000000000000, 1.000000000000000000 ) ) ;
#43 = DIRECTION ( 'NONE',  ( 1.000000000000000000, 0.0000000000000000000, -0.0000000000000000000 ) ) ;
#44 = PLANE ( 'NONE',  #71 ) ;
#45 = DIRECTION ( 'NONE',  ( -0.0000000000000000000, -0.0000000000000000000, -1.000000000000000000 ) ) ;
#46 = SHAPE_DEFINITION_REPRESENTATION ( #166, #172 ) ;
#47 = PERSON_AND_ORGANIZATION_ROLE ( 'design_supplier' ) ;
#48 = AXIS2_PLACEMENT_3D ( 'NONE', #1, #10, #17 ) ;
#49 = COORDINATED_UNIVERSAL_TIME_OFFSET ( 5, 0, .BEHIND. ) ;
#50 = ORIENTED_EDGE ( 'NONE', *, *, #7, .F. ) ;
#51 = SECURITY_CLASSIFICATION ( '', '', #92 ) ;
#52 = MECHANICAL_CONTEXT ( 'NONE', #119, 'mechanical' ) ;
#53 = VERTEX_POINT ( 'NONE', #88 ) ;
#54 = ORIENTED_EDGE ( 'NONE', *, *, #124, .T. ) ;
#55 = AXIS2_PLACEMENT_3D ( 'NONE', #90, #42, #105 ) ;
#56 = CARTESIAN_POINT ( 'NONE',  ( 0.0000000000000000000, 0.0000000000000000000, -3.174999999999999800 ) ) ;
#57 = CARTESIAN_POINT ( 'NONE',  ( 0.0000000000000000000, 0.0000000000000000000, 0.0000000000000000000 ) ) ;
#58 = COORDINATED_UNIVERSAL_TIME_OFFSET ( 5, 0, .BEHIND. ) ;
#59 = DIRECTION ( 'NONE',  ( -1.000000000000000000, 0.0000000000000000000, 0.0000000000000000000 ) ) ;
#60 = ORIENTED_EDGE ( 'NONE', *, *, #114, .F. ) ;
#61 = CC_DESIGN_APPROVAL ( #37, ( #151 ) ) ;
#62 = ADVANCED_FACE ( 'NONE', ( #28 ), #6, .T. ) ;
#63 = DIRECTION ( 'NONE',  ( 1.000000000000000000, 0.0000000000000000000, 0.0000000000000000000 ) ) ;
#64 = APPROVAL_STATUS ( 'not_yet_approved' ) ;
#65 = PRODUCT_DEFINITION ( 'UNKNOWN', '', #151, #86 ) ;
#66 = LOCAL_TIME ( 14, 46, 37.00000000000000000, #49 ) ;
#67 = APPROVAL_ROLE ( '' ) ;
#68 = DATE_TIME_ROLE ( 'creation_date' ) ;
#69 = APPROVAL_PERSON_ORGANIZATION ( #20, #137, #21 ) ;
#70 = VERTEX_POINT ( 'NONE', #36 ) ;
#71 = AXIS2_PLACEMENT_3D ( 'NONE', #139, #77, #168 ) ;
#72 = CC_DESIGN_APPROVAL ( #137, ( #51 ) ) ;
#73 = CALENDAR_DATE ( 2018, 3, 8 ) ;
#74 = ORIENTED_EDGE ( 'NONE', *, *, #114, .T. ) ;
#75 = CARTESIAN_POINT ( 'NONE',  ( 12.69999999999999900, 1.555301434917138400E-015, 3.174999999999999800 ) ) ;
#76 = CC_DESIGN_APPROVAL ( #156, ( #65 ) ) ;
#77 = DIRECTION ( 'NONE',  ( 0.0000000000000000000, 0.0000000000000000000, 1.000000000000000000 ) ) ;
#78 = COORDINATED_UNIVERSAL_TIME_OFFSET ( 5, 0, .BEHIND. ) ;
#79 = CYLINDRICAL_SURFACE ( 'NONE', #120, 12.69999999999999900 ) ;
#80 = PERSON_AND_ORGANIZATION ( #83, #129 ) ;
#81 = CC_DESIGN_PERSON_AND_ORGANIZATION_ASSIGNMENT ( #160, #23, ( #151 ) ) ;
#82 = CIRCLE ( 'NONE', #48, 12.69999999999999900 ) ;
#83 = PERSON ( 'UNSPECIFIED', 'UNSPECIFIED', 'UNSPECIFIED', ('UNSPECIFIED'), ('UNSPECIFIED'), ('UNSPECIFIED') ) ;
#84 = PERSON_AND_ORGANIZATION ( #83, #129 ) ;
#85 = CARTESIAN_POINT ( 'NONE',  ( -12.69999999999999900, 0.0000000000000000000, 3.174999999999999800 ) ) ;
#86 = DESIGN_CONTEXT ( 'detailed design', #93, 'design' ) ;
#87 = CARTESIAN_POINT ( 'NONE',  ( 0.0000000000000000000, 0.0000000000000000000, -3.174999999999999800 ) ) ;
#88 = CARTESIAN_POINT ( 'NONE',  ( -12.69999999999999900, 0.0000000000000000000, -3.174999999999999800 ) ) ;
#89 = CALENDAR_DATE ( 2018, 3, 8 ) ;
#90 = CARTESIAN_POINT ( 'NONE',  ( 0.0000000000000000000, 0.0000000000000000000, -3.174999999999999800 ) ) ;
#91 = CC_DESIGN_SECURITY_CLASSIFICATION ( #51, ( #151 ) ) ;
#92 = SECURITY_CLASSIFICATION_LEVEL ( 'unclassified' ) ;
#93 = APPLICATION_CONTEXT ( 'configuration controlled 3d designs of mechanical parts and assemblies' ) ;
#94 = AXIS2_PLACEMENT_3D ( 'NONE', #57, #18, #63 ) ;
#95 = EDGE_LOOP ( 'NONE', ( #162, #60, #153, #54 ) ) ;
#96 = CC_DESIGN_PERSON_AND_ORGANIZATION_ASSIGNMENT ( #155, #154, ( #51 ) ) ;
#97 = ADVANCED_FACE ( 'NONE', ( #98 ), #44, .T. ) ;
#98 = FACE_OUTER_BOUND ( 'NONE', #14, .T. ) ;
#99 = LOCAL_TIME ( 14, 46, 37.00000000000000000, #117 ) ;
#100 = AXIS2_PLACEMENT_3D ( 'NONE', #122, #121, #173 ) ;
#101 = VERTEX_POINT ( 'NONE', #150 ) ;
#102 = PRODUCT_RELATED_PRODUCT_CATEGORY ( 'detail', '', ( #134 ) ) ;
#103 = DATE_AND_TIME ( #73, #152 ) ;
#104 = CC_DESIGN_PERSON_AND_ORGANIZATION_ASSIGNMENT ( #80, #159, ( #134 ) ) ;
#105 = DIRECTION ( 'NONE',  ( 1.000000000000000000, 0.0000000000000000000, 0.0000000000000000000 ) ) ;
#106 = DIRECTION ( 'NONE',  ( 1.000000000000000000, 0.0000000000000000000, 0.0000000000000000000 ) ) ;
#107 = LOCAL_TIME ( 14, 46, 37.00000000000000000, #78 ) ;
#108 = LINE ( 'NONE', #75, #39 ) ;
#109 = CC_DESIGN_DATE_AND_TIME_ASSIGNMENT ( #103, #29, ( #51 ) ) ;
#110 = CALENDAR_DATE ( 2018, 3, 8 ) ;
#111 = PERSON_AND_ORGANIZATION ( #83, #129 ) ;
#112 = ADVANCED_FACE ( 'NONE', ( #141 ), #165, .F. ) ;
#113 = APPLICATION_PROTOCOL_DEFINITION ( 'international standard', 'config_control_design', 1994, #93 ) ;
#114 = EDGE_CURVE ( 'NONE', #138, #101, #82, .T. ) ;
#115 = CC_DESIGN_PERSON_AND_ORGANIZATION_ASSIGNMENT ( #84, #144, ( #65 ) ) ;
#116 = PERSON_AND_ORGANIZATION ( #83, #129 ) ;
#117 = COORDINATED_UNIVERSAL_TIME_OFFSET ( 5, 0, .BEHIND. ) ;
#118 = DIRECTION ( 'NONE',  ( -0.0000000000000000000, -0.0000000000000000000, -1.000000000000000000 ) ) ;
#119 = APPLICATION_CONTEXT ( 'configuration controlled 3d designs of mechanical parts and assemblies' ) ;
#120 = AXIS2_PLACEMENT_3D ( 'NONE', #9, #133, #59 ) ;
#121 = DIRECTION ( 'NONE',  ( 0.0000000000000000000, 0.0000000000000000000, 1.000000000000000000 ) ) ;
#122 = CARTESIAN_POINT ( 'NONE',  ( 0.0000000000000000000, 0.0000000000000000000, 3.174999999999999800 ) ) ;
#123 = CLOSED_SHELL ( 'NONE', ( #62, #38, #97, #112 ) ) ;
#124 = EDGE_CURVE ( 'NONE', #53, #70, #30, .T. ) ;
#125 = MANIFOLD_SOLID_BREP ( 'Boss-Extrude1', #123 ) ;
#126 = EDGE_LOOP ( 'NONE', ( #33, #12 ) ) ;
#127 = DATE_AND_TIME ( #110, #174 ) ;
#128 = LINE ( 'NONE', #147, #175 ) ;
#129 = ORGANIZATION ( 'UNSPECIFIED', 'UNSPECIFIED', '' ) ;
#130 = CC_DESIGN_DATE_AND_TIME_ASSIGNMENT ( #3, #68, ( #65 ) ) ;
#131 = AXIS2_PLACEMENT_3D ( 'NONE', #136, #45, #135 ) ;
#132 =( NAMED_UNIT ( * ) SI_UNIT ( $, .STERADIAN. ) SOLID_ANGLE_UNIT ( ) );
#133 = DIRECTION ( 'NONE',  ( -0.0000000000000000000, -0.0000000000000000000, -1.000000000000000000 ) ) ;
#134 = PRODUCT ( 'Web Model 37689_37721', 'Web Model 37689_37721', '', ( #52 ) ) ;
#135 = DIRECTION ( 'NONE',  ( -1.000000000000000000, 0.0000000000000000000, 0.0000000000000000000 ) ) ;
#136 = CARTESIAN_POINT ( 'NONE',  ( 0.0000000000000000000, 0.0000000000000000000, 3.174999999999999800 ) ) ;
#137 = APPROVAL ( #64, 'UNSPECIFIED' ) ;
#138 = VERTEX_POINT ( 'NONE', #85 ) ;
#139 = CARTESIAN_POINT ( 'NONE',  ( 0.0000000000000000000, 0.0000000000000000000, 3.174999999999999800 ) ) ;
#140 = APPROVAL_ROLE ( '' ) ;
#141 = FACE_OUTER_BOUND ( 'NONE', #126, .T. ) ;
#142 = EDGE_CURVE ( 'NONE', #101, #70, #108, .T. ) ;
#143 = CALENDAR_DATE ( 2018, 3, 8 ) ;
#144 = PERSON_AND_ORGANIZATION_ROLE ( 'creator' ) ;
#145 = EDGE_LOOP ( 'NONE', ( #50, #158, #169, #16 ) ) ;
#146 = APPROVAL_DATE_TIME ( #127, #37 ) ;
#147 = CARTESIAN_POINT ( 'NONE',  ( -12.69999999999999900, 0.0000000000000000000, 3.174999999999999800 ) ) ;
#148 = AXIS2_PLACEMENT_3D ( 'NONE', #56, #149, #43 ) ;
#149 = DIRECTION ( 'NONE',  ( 0.0000000000000000000, 0.0000000000000000000, 1.000000000000000000 ) ) ;
#150 = CARTESIAN_POINT ( 'NONE',  ( 12.69999999999999900, 1.555301434917138400E-015, 3.174999999999999800 ) ) ;
#151 = PRODUCT_DEFINITION_FORMATION_WITH_SPECIFIED_SOURCE ( 'ANY', '', #134, .NOT_KNOWN. ) ;
#152 = LOCAL_TIME ( 14, 46, 37.00000000000000000, #13 ) ;
#153 = ORIENTED_EDGE ( 'NONE', *, *, #34, .T. ) ;
#154 = PERSON_AND_ORGANIZATION_ROLE ( 'classification_officer' ) ;
#155 = PERSON_AND_ORGANIZATION ( #83, #129 ) ;
#156 = APPROVAL ( #4, 'UNSPECIFIED' ) ;
#157 = PERSON_AND_ORGANIZATION ( #83, #129 ) ;
#158 = ORIENTED_EDGE ( 'NONE', *, *, #142, .T. ) ;
#159 = PERSON_AND_ORGANIZATION_ROLE ( 'design_owner' ) ;
#160 = PERSON_AND_ORGANIZATION ( #83, #129 ) ;
#161 =( GEOMETRIC_REPRESENTATION_CONTEXT ( 3 ) GLOBAL_UNCERTAINTY_ASSIGNED_CONTEXT ( ( #25 ) ) GLOBAL_UNIT_ASSIGNED_CONTEXT ( ( #19, #2, #132 ) ) REPRESENTATION_CONTEXT ( 'NONE', 'WORKASPACE' ) );
#162 = ORIENTED_EDGE ( 'NONE', *, *, #142, .F. ) ;
#163 = CC_DESIGN_PERSON_AND_ORGANIZATION_ASSIGNMENT ( #116, #47, ( #151 ) ) ;
#164 = CIRCLE ( 'NONE', #40, 12.69999999999999900 ) ;
#165 = PLANE ( 'NONE',  #148 ) ;
#166 = PRODUCT_DEFINITION_SHAPE ( 'NONE', 'NONE',  #65 ) ;
#167 = DIRECTION ( 'NONE',  ( 0.0000000000000000000, 0.0000000000000000000, 1.000000000000000000 ) ) ;
#168 = DIRECTION ( 'NONE',  ( 1.000000000000000000, 0.0000000000000000000, -0.0000000000000000000 ) ) ;
#169 = ORIENTED_EDGE ( 'NONE', *, *, #26, .T. ) ;
#170 = APPROVAL_DATE_TIME ( #24, #156 ) ;
#171 = FACE_OUTER_BOUND ( 'NONE', #95, .T. ) ;
#172 = ADVANCED_BREP_SHAPE_REPRESENTATION ( 'Web Model 37689_37721', ( #125, #94 ), #161 ) ;
#173 = DIRECTION ( 'NONE',  ( 1.000000000000000000, 0.0000000000000000000, 0.0000000000000000000 ) ) ;
#174 = LOCAL_TIME ( 14, 46, 37.00000000000000000, #58 ) ;
#175 = VECTOR ( 'NONE', #8, 1000.000000000000000 ) ;
ENDSEC;
END-ISO-10303-21;
