ISO-10303-21;
HEADER;
FILE_DESCRIPTION (( 'STEP AP203' ),
    '1' );
FILE_NAME ('Web Model 47937.STEP',
    '2017-01-31T15:20:55',
    ( '' ),
    ( '' ),
    'SwSTEP 2.0',
    'SolidWorks 2016',
    '' );
FILE_SCHEMA (( 'CONFIG_CONTROL_DESIGN' ));
ENDSEC;

DATA;
#1 = DATE_AND_TIME ( #91, #164 ) ;
#2 = AXIS2_PLACEMENT_3D ( 'NONE', #51, #94, #50 ) ;
#3 = ORIENTED_EDGE ( 'NONE', *, *, #141, .T. ) ;
#4 = LINE ( 'NONE', #156, #39 ) ;
#5 = DIRECTION ( 'NONE',  ( -1.000000000000000000, 0.0000000000000000000, 0.0000000000000000000 ) ) ;
#6 = DIRECTION ( 'NONE',  ( -0.0000000000000000000, -0.0000000000000000000, -1.000000000000000000 ) ) ;
#7 = ADVANCED_FACE ( 'NONE', ( #99 ), #133, .T. ) ;
#8 = ORIENTED_EDGE ( 'NONE', *, *, #79, .T. ) ;
#9 = DATE_AND_TIME ( #41, #85 ) ;
#10 = PERSON_AND_ORGANIZATION_ROLE ( 'creator' ) ;
#11 = CC_DESIGN_APPROVAL ( #38, ( #80 ) ) ;
#12 = APPLICATION_CONTEXT ( 'configuration controlled 3d designs of mechanical parts and assemblies' ) ;
#13 = EDGE_CURVE ( 'NONE', #15, #27, #144, .T. ) ;
#14 = PRODUCT ( 'Web Model 47937', 'Web Model 47937', '', ( #113 ) ) ;
#15 = VERTEX_POINT ( 'NONE', #90 ) ;
#16 = PERSON_AND_ORGANIZATION ( #115, #97 ) ;
#17 = CC_DESIGN_SECURITY_CLASSIFICATION ( #80, ( #57 ) ) ;
#18 = DIRECTION ( 'NONE',  ( -0.0000000000000000000, -0.0000000000000000000, -1.000000000000000000 ) ) ;
#19 = DIRECTION ( 'NONE',  ( 0.0000000000000000000, 0.0000000000000000000, 1.000000000000000000 ) ) ;
#20 = APPROVAL_DATE_TIME ( #122, #157 ) ;
#21 = ADVANCED_FACE ( 'NONE', ( #150 ), #116, .T. ) ;
#22 = APPROVAL_ROLE ( '' ) ;
#23 = APPROVAL_PERSON_ORGANIZATION ( #147, #38, #135 ) ;
#24 = APPLICATION_PROTOCOL_DEFINITION ( 'international standard', 'config_control_design', 1994, #77 ) ;
#25 = AXIS2_PLACEMENT_3D ( 'NONE', #33, #131, #162 ) ;
#26 = PRODUCT_RELATED_PRODUCT_CATEGORY ( 'detail', '', ( #14 ) ) ;
#27 = VERTEX_POINT ( 'NONE', #60 ) ;
#28 = VERTEX_POINT ( 'NONE', #170 ) ;
#29 = CC_DESIGN_APPROVAL ( #166, ( #57 ) ) ;
#30 = DIRECTION ( 'NONE',  ( -1.000000000000000000, 0.0000000000000000000, 0.0000000000000000000 ) ) ;
#31 = DATE_TIME_ROLE ( 'creation_date' ) ;
#32 = EDGE_CURVE ( 'NONE', #28, #27, #4, .T. ) ;
#33 = CARTESIAN_POINT ( 'NONE',  ( 0.0000000000000000000, 0.0000000000000000000, 2.000000000000000000 ) ) ;
#34 = PERSON_AND_ORGANIZATION_ROLE ( 'design_owner' ) ;
#35 =( LENGTH_UNIT ( ) NAMED_UNIT ( * ) SI_UNIT ( .MILLI., .METRE. ) );
#36 = EDGE_CURVE ( 'NONE', #27, #15, #70, .T. ) ;
#37 = ORIENTED_EDGE ( 'NONE', *, *, #36, .F. ) ;
#38 = APPROVAL ( #89, 'UNSPECIFIED' ) ;
#39 = VECTOR ( 'NONE', #6, 1000.000000000000000 ) ;
#40 = DATE_TIME_ROLE ( 'classification_date' ) ;
#41 = CALENDAR_DATE ( 2017, 31, 1 ) ;
#42 = LOCAL_TIME ( 10, 20, 55.00000000000000000, #165 ) ;
#43 = AXIS2_PLACEMENT_3D ( 'NONE', #153, #171, #86 ) ;
#44 = ORIENTED_EDGE ( 'NONE', *, *, #32, .T. ) ;
#45 = CARTESIAN_POINT ( 'NONE',  ( 6.250000000000000000, 7.654042494670957600E-016, 2.000000000000000000 ) ) ;
#46 = ADVANCED_FACE ( 'NONE', ( #76 ), #155, .F. ) ;
#47 = APPROVAL_PERSON_ORGANIZATION ( #159, #157, #160 ) ;
#48 = DIRECTION ( 'NONE',  ( 0.0000000000000000000, 0.0000000000000000000, 1.000000000000000000 ) ) ;
#49 = APPLICATION_PROTOCOL_DEFINITION ( 'international standard', 'config_control_design', 1994, #12 ) ;
#50 = DIRECTION ( 'NONE',  ( 1.000000000000000000, 0.0000000000000000000, 0.0000000000000000000 ) ) ;
#51 = CARTESIAN_POINT ( 'NONE',  ( 0.0000000000000000000, 0.0000000000000000000, 2.000000000000000000 ) ) ;
#52 = PERSON_AND_ORGANIZATION ( #115, #97 ) ;
#53 = MANIFOLD_SOLID_BREP ( 'Extrude1', #59 ) ;
#54 = CALENDAR_DATE ( 2017, 31, 1 ) ;
#55 = APPROVAL_PERSON_ORGANIZATION ( #134, #166, #22 ) ;
#56 = DESIGN_CONTEXT ( 'detailed design', #77, 'design' ) ;
#57 = PRODUCT_DEFINITION_FORMATION_WITH_SPECIFIED_SOURCE ( 'ANY', '', #14, .NOT_KNOWN. ) ;
#58 = LINE ( 'NONE', #132, #167 ) ;
#59 = CLOSED_SHELL ( 'NONE', ( #21, #7, #142, #46 ) ) ;
#60 = CARTESIAN_POINT ( 'NONE',  ( -6.250000000000000000, 0.0000000000000000000, 0.0000000000000000000 ) ) ;
#61 =( GEOMETRIC_REPRESENTATION_CONTEXT ( 3 ) GLOBAL_UNCERTAINTY_ASSIGNED_CONTEXT ( ( #64 ) ) GLOBAL_UNIT_ASSIGNED_CONTEXT ( ( #35, #98, #118 ) ) REPRESENTATION_CONTEXT ( 'NONE', 'WORKASPACE' ) );
#62 = CARTESIAN_POINT ( 'NONE',  ( 0.0000000000000000000, 0.0000000000000000000, 0.0000000000000000000 ) ) ;
#63 = CC_DESIGN_APPROVAL ( #157, ( #151 ) ) ;
#64 = UNCERTAINTY_MEASURE_WITH_UNIT (LENGTH_MEASURE( 1.000000000000000100E-005 ), #35, 'distance_accuracy_value', 'NONE');
#65 = PERSON_AND_ORGANIZATION ( #115, #97 ) ;
#66 = AXIS2_PLACEMENT_3D ( 'NONE', #96, #110, #175 ) ;
#67 = AXIS2_PLACEMENT_3D ( 'NONE', #62, #158, #108 ) ;
#68 = DIRECTION ( 'NONE',  ( 1.000000000000000000, 0.0000000000000000000, -0.0000000000000000000 ) ) ;
#69 = ORIENTED_EDGE ( 'NONE', *, *, #101, .F. ) ;
#70 = CIRCLE ( 'NONE', #67, 6.250000000000000000 ) ;
#71 = AXIS2_PLACEMENT_3D ( 'NONE', #124, #48, #68 ) ;
#72 = CC_DESIGN_DATE_AND_TIME_ASSIGNMENT ( #1, #31, ( #151 ) ) ;
#73 = COORDINATED_UNIVERSAL_TIME_OFFSET ( 5, 0, .BEHIND. ) ;
#74 = CC_DESIGN_PERSON_AND_ORGANIZATION_ASSIGNMENT ( #106, #93, ( #57 ) ) ;
#75 = DIRECTION ( 'NONE',  ( -0.0000000000000000000, -0.0000000000000000000, -1.000000000000000000 ) ) ;
#76 = FACE_OUTER_BOUND ( 'NONE', #139, .T. ) ;
#77 = APPLICATION_CONTEXT ( 'configuration controlled 3d designs of mechanical parts and assemblies' ) ;
#78 = PLANE ( 'NONE',  #71 ) ;
#79 = EDGE_CURVE ( 'NONE', #87, #28, #174, .T. ) ;
#80 = SECURITY_CLASSIFICATION ( '', '', #145 ) ;
#81 = FACE_OUTER_BOUND ( 'NONE', #130, .T. ) ;
#82 = ORIENTED_EDGE ( 'NONE', *, *, #101, .T. ) ;
#83 = COORDINATED_UNIVERSAL_TIME_OFFSET ( 5, 0, .BEHIND. ) ;
#84 = PRODUCT_DEFINITION_SHAPE ( 'NONE', 'NONE',  #151 ) ;
#85 = LOCAL_TIME ( 10, 20, 55.00000000000000000, #120 ) ;
#86 = DIRECTION ( 'NONE',  ( 1.000000000000000000, 0.0000000000000000000, 0.0000000000000000000 ) ) ;
#87 = VERTEX_POINT ( 'NONE', #45 ) ;
#88 = CC_DESIGN_DATE_AND_TIME_ASSIGNMENT ( #9, #40, ( #80 ) ) ;
#89 = APPROVAL_STATUS ( 'not_yet_approved' ) ;
#90 = CARTESIAN_POINT ( 'NONE',  ( 6.250000000000000000, 7.654042494670957600E-016, 0.0000000000000000000 ) ) ;
#91 = CALENDAR_DATE ( 2017, 31, 1 ) ;
#92 = APPROVAL_STATUS ( 'not_yet_approved' ) ;
#93 = PERSON_AND_ORGANIZATION_ROLE ( 'design_supplier' ) ;
#94 = DIRECTION ( 'NONE',  ( 0.0000000000000000000, 0.0000000000000000000, 1.000000000000000000 ) ) ;
#95 = CC_DESIGN_PERSON_AND_ORGANIZATION_ASSIGNMENT ( #65, #104, ( #80 ) ) ;
#96 = CARTESIAN_POINT ( 'NONE',  ( 0.0000000000000000000, 0.0000000000000000000, 0.0000000000000000000 ) ) ;
#97 = ORGANIZATION ( 'UNSPECIFIED', 'UNSPECIFIED', '' ) ;
#98 =( NAMED_UNIT ( * ) PLANE_ANGLE_UNIT ( ) SI_UNIT ( $, .RADIAN. ) );
#99 = FACE_OUTER_BOUND ( 'NONE', #125, .T. ) ;
#100 = CIRCLE ( 'NONE', #2, 6.250000000000000000 ) ;
#101 = EDGE_CURVE ( 'NONE', #87, #15, #58, .T. ) ;
#102 = LOCAL_TIME ( 10, 20, 55.00000000000000000, #73 ) ;
#103 = ORIENTED_EDGE ( 'NONE', *, *, #141, .F. ) ;
#104 = PERSON_AND_ORGANIZATION_ROLE ( 'classification_officer' ) ;
#105 = CC_DESIGN_PERSON_AND_ORGANIZATION_ASSIGNMENT ( #152, #161, ( #151 ) ) ;
#106 = PERSON_AND_ORGANIZATION ( #115, #97 ) ;
#107 = AXIS2_PLACEMENT_3D ( 'NONE', #140, #75, #30 ) ;
#108 = DIRECTION ( 'NONE',  ( 1.000000000000000000, 0.0000000000000000000, 0.0000000000000000000 ) ) ;
#109 = ORIENTED_EDGE ( 'NONE', *, *, #13, .T. ) ;
#110 = DIRECTION ( 'NONE',  ( 0.0000000000000000000, 0.0000000000000000000, 1.000000000000000000 ) ) ;
#111 = APPROVAL_DATE_TIME ( #138, #38 ) ;
#112 = ORIENTED_EDGE ( 'NONE', *, *, #79, .F. ) ;
#113 = MECHANICAL_CONTEXT ( 'NONE', #12, 'mechanical' ) ;
#114 = CC_DESIGN_PERSON_AND_ORGANIZATION_ASSIGNMENT ( #16, #34, ( #14 ) ) ;
#115 = PERSON ( 'UNSPECIFIED', 'UNSPECIFIED', 'UNSPECIFIED', ('UNSPECIFIED'), ('UNSPECIFIED'), ('UNSPECIFIED') ) ;
#116 = CYLINDRICAL_SURFACE ( 'NONE', #126, 6.250000000000000000 ) ;
#117 = ORIENTED_EDGE ( 'NONE', *, *, #13, .F. ) ;
#118 =( NAMED_UNIT ( * ) SI_UNIT ( $, .STERADIAN. ) SOLID_ANGLE_UNIT ( ) );
#119 = ORIENTED_EDGE ( 'NONE', *, *, #32, .F. ) ;
#120 = COORDINATED_UNIVERSAL_TIME_OFFSET ( 5, 0, .BEHIND. ) ;
#121 = APPROVAL_STATUS ( 'not_yet_approved' ) ;
#122 = DATE_AND_TIME ( #54, #127 ) ;
#123 = DATE_AND_TIME ( #163, #102 ) ;
#124 = CARTESIAN_POINT ( 'NONE',  ( 0.0000000000000000000, 0.0000000000000000000, 2.000000000000000000 ) ) ;
#125 = EDGE_LOOP ( 'NONE', ( #69, #103, #44, #137 ) ) ;
#126 = AXIS2_PLACEMENT_3D ( 'NONE', #169, #18, #5 ) ;
#127 = LOCAL_TIME ( 10, 20, 55.00000000000000000, #148 ) ;
#128 = DIRECTION ( 'NONE',  ( 1.000000000000000000, 0.0000000000000000000, -0.0000000000000000000 ) ) ;
#129 = ADVANCED_BREP_SHAPE_REPRESENTATION ( 'Web Model 47937', ( #53, #66 ), #61 ) ;
#130 = EDGE_LOOP ( 'NONE', ( #3, #8 ) ) ;
#131 = DIRECTION ( 'NONE',  ( 0.0000000000000000000, 0.0000000000000000000, 1.000000000000000000 ) ) ;
#132 = CARTESIAN_POINT ( 'NONE',  ( 6.250000000000000000, 7.654042494670957600E-016, 2.000000000000000000 ) ) ;
#133 = CYLINDRICAL_SURFACE ( 'NONE', #107, 6.250000000000000000 ) ;
#134 = PERSON_AND_ORGANIZATION ( #115, #97 ) ;
#135 = APPROVAL_ROLE ( '' ) ;
#136 = APPROVAL_DATE_TIME ( #123, #166 ) ;
#137 = ORIENTED_EDGE ( 'NONE', *, *, #36, .T. ) ;
#138 = DATE_AND_TIME ( #149, #42 ) ;
#139 = EDGE_LOOP ( 'NONE', ( #37, #117 ) ) ;
#140 = CARTESIAN_POINT ( 'NONE',  ( 0.0000000000000000000, 0.0000000000000000000, 2.000000000000000000 ) ) ;
#141 = EDGE_CURVE ( 'NONE', #28, #87, #100, .T. ) ;
#142 = ADVANCED_FACE ( 'NONE', ( #81 ), #78, .T. ) ;
#143 = SHAPE_DEFINITION_REPRESENTATION ( #84, #129 ) ;
#144 = CIRCLE ( 'NONE', #43, 6.250000000000000000 ) ;
#145 = SECURITY_CLASSIFICATION_LEVEL ( 'unclassified' ) ;
#146 = CC_DESIGN_PERSON_AND_ORGANIZATION_ASSIGNMENT ( #52, #10, ( #57 ) ) ;
#147 = PERSON_AND_ORGANIZATION ( #115, #97 ) ;
#148 = COORDINATED_UNIVERSAL_TIME_OFFSET ( 5, 0, .BEHIND. ) ;
#149 = CALENDAR_DATE ( 2017, 31, 1 ) ;
#150 = FACE_OUTER_BOUND ( 'NONE', #168, .T. ) ;
#151 = PRODUCT_DEFINITION ( 'UNKNOWN', '', #57, #56 ) ;
#152 = PERSON_AND_ORGANIZATION ( #115, #97 ) ;
#153 = CARTESIAN_POINT ( 'NONE',  ( 0.0000000000000000000, 0.0000000000000000000, 0.0000000000000000000 ) ) ;
#154 = CARTESIAN_POINT ( 'NONE',  ( 0.0000000000000000000, 0.0000000000000000000, 0.0000000000000000000 ) ) ;
#155 = PLANE ( 'NONE',  #172 ) ;
#156 = CARTESIAN_POINT ( 'NONE',  ( -6.250000000000000000, 0.0000000000000000000, 2.000000000000000000 ) ) ;
#157 = APPROVAL ( #121, 'UNSPECIFIED' ) ;
#158 = DIRECTION ( 'NONE',  ( 0.0000000000000000000, 0.0000000000000000000, 1.000000000000000000 ) ) ;
#159 = PERSON_AND_ORGANIZATION ( #115, #97 ) ;
#160 = APPROVAL_ROLE ( '' ) ;
#161 = PERSON_AND_ORGANIZATION_ROLE ( 'creator' ) ;
#162 = DIRECTION ( 'NONE',  ( 1.000000000000000000, 0.0000000000000000000, 0.0000000000000000000 ) ) ;
#163 = CALENDAR_DATE ( 2017, 31, 1 ) ;
#164 = LOCAL_TIME ( 10, 20, 55.00000000000000000, #83 ) ;
#165 = COORDINATED_UNIVERSAL_TIME_OFFSET ( 5, 0, .BEHIND. ) ;
#166 = APPROVAL ( #92, 'UNSPECIFIED' ) ;
#167 = VECTOR ( 'NONE', #173, 1000.000000000000000 ) ;
#168 = EDGE_LOOP ( 'NONE', ( #112, #82, #109, #119 ) ) ;
#169 = CARTESIAN_POINT ( 'NONE',  ( 0.0000000000000000000, 0.0000000000000000000, 2.000000000000000000 ) ) ;
#170 = CARTESIAN_POINT ( 'NONE',  ( -6.250000000000000000, 0.0000000000000000000, 2.000000000000000000 ) ) ;
#171 = DIRECTION ( 'NONE',  ( 0.0000000000000000000, 0.0000000000000000000, 1.000000000000000000 ) ) ;
#172 = AXIS2_PLACEMENT_3D ( 'NONE', #154, #19, #128 ) ;
#173 = DIRECTION ( 'NONE',  ( -0.0000000000000000000, -0.0000000000000000000, -1.000000000000000000 ) ) ;
#174 = CIRCLE ( 'NONE', #25, 6.250000000000000000 ) ;
#175 = DIRECTION ( 'NONE',  ( 1.000000000000000000, 0.0000000000000000000, 0.0000000000000000000 ) ) ;
ENDSEC;
END-ISO-10303-21;
