ISO-10303-21;
HEADER;
FILE_DESCRIPTION (( 'STEP AP203' ),
    '1' );
FILE_NAME ('Web Model 68811_68811.step',
    '2017-03-06T18:03:45',
    ( '' ),
    ( '' ),
    'SwSTEP 2.0',
    'SolidWorks 2016',
    '' );
FILE_SCHEMA (( 'CONFIG_CONTROL_DESIGN' ));
ENDSEC;

DATA;
#1 = APPROVAL_PERSON_ORGANIZATION ( #115, #113, #128 ) ;
#2 = CARTESIAN_POINT ( 'NONE',  ( 0.0000000000000000000, 0.0000000000000000000, 0.0000000000000000000 ) ) ;
#3 = MECHANICAL_CONTEXT ( 'NONE', #168, 'mechanical' ) ;
#4 = PERSON_AND_ORGANIZATION_ROLE ( 'classification_officer' ) ;
#5 = AXIS2_PLACEMENT_3D ( 'NONE', #13, #67, #165 ) ;
#6 = PRODUCT_DEFINITION_SHAPE ( 'NONE', 'NONE',  #103 ) ;
#7 = ORIENTED_EDGE ( 'NONE', *, *, #76, .F. ) ;
#8 = PERSON_AND_ORGANIZATION ( #87, #47 ) ;
#9 = ORIENTED_EDGE ( 'NONE', *, *, #88, .F. ) ;
#10 = CYLINDRICAL_SURFACE ( 'NONE', #173, 25.00000000000000000 ) ;
#11 = LOCAL_TIME ( 13, 3, 45.00000000000000000, #122 ) ;
#12 = AXIS2_PLACEMENT_3D ( 'NONE', #154, #68, #166 ) ;
#13 = CARTESIAN_POINT ( 'NONE',  ( 0.0000000000000000000, 0.0000000000000000000, -1.500000000000000000 ) ) ;
#14 = DIRECTION ( 'NONE',  ( -0.0000000000000000000, -0.0000000000000000000, -1.000000000000000000 ) ) ;
#15 = CARTESIAN_POINT ( 'NONE',  ( 25.00000000000000000, 3.061616997868383000E-015, 1.500000000000000000 ) ) ;
#16 = CARTESIAN_POINT ( 'NONE',  ( -25.00000000000000000, 0.0000000000000000000, 1.500000000000000000 ) ) ;
#17 = SECURITY_CLASSIFICATION ( '', '', #83 ) ;
#18 = APPLICATION_CONTEXT ( 'configuration controlled 3d designs of mechanical parts and assemblies' ) ;
#19 = ADVANCED_FACE ( 'NONE', ( #114 ), #119, .T. ) ;
#20 = CALENDAR_DATE ( 2017, 6, 3 ) ;
#21 = APPROVAL_STATUS ( 'not_yet_approved' ) ;
#22 = EDGE_LOOP ( 'NONE', ( #78, #89 ) ) ;
#23 = CALENDAR_DATE ( 2017, 6, 3 ) ;
#24 = COORDINATED_UNIVERSAL_TIME_OFFSET ( 5, 0, .BEHIND. ) ;
#25 = AXIS2_PLACEMENT_3D ( 'NONE', #32, #124, #43 ) ;
#26 = FACE_OUTER_BOUND ( 'NONE', #140, .T. ) ;
#27 = CC_DESIGN_PERSON_AND_ORGANIZATION_ASSIGNMENT ( #8, #4, ( #17 ) ) ;
#28 = LINE ( 'NONE', #57, #137 ) ;
#29 = DIRECTION ( 'NONE',  ( 0.0000000000000000000, 0.0000000000000000000, 1.000000000000000000 ) ) ;
#30 = ORIENTED_EDGE ( 'NONE', *, *, #129, .F. ) ;
#31 = CARTESIAN_POINT ( 'NONE',  ( 0.0000000000000000000, 0.0000000000000000000, -1.500000000000000000 ) ) ;
#32 = CARTESIAN_POINT ( 'NONE',  ( 0.0000000000000000000, 0.0000000000000000000, 1.500000000000000000 ) ) ;
#33 = ADVANCED_FACE ( 'NONE', ( #26 ), #10, .T. ) ;
#34 = APPROVAL_STATUS ( 'not_yet_approved' ) ;
#35 = AXIS2_PLACEMENT_3D ( 'NONE', #70, #167, #80 ) ;
#36 = APPROVAL_DATE_TIME ( #112, #113 ) ;
#37 = CC_DESIGN_DATE_AND_TIME_ASSIGNMENT ( #160, #98, ( #17 ) ) ;
#38 = PERSON_AND_ORGANIZATION ( #87, #47 ) ;
#39 = CARTESIAN_POINT ( 'NONE',  ( 0.0000000000000000000, 0.0000000000000000000, 1.500000000000000000 ) ) ;
#40 = CARTESIAN_POINT ( 'NONE',  ( -25.00000000000000000, 0.0000000000000000000, 1.500000000000000000 ) ) ;
#41 = EDGE_LOOP ( 'NONE', ( #51, #61, #90, #7 ) ) ;
#42 = DIRECTION ( 'NONE',  ( 1.000000000000000000, 0.0000000000000000000, 0.0000000000000000000 ) ) ;
#43 = DIRECTION ( 'NONE',  ( 1.000000000000000000, 0.0000000000000000000, 0.0000000000000000000 ) ) ;
#44 =( NAMED_UNIT ( * ) PLANE_ANGLE_UNIT ( ) SI_UNIT ( $, .RADIAN. ) );
#45 = APPROVAL ( #21, 'UNSPECIFIED' ) ;
#46 = PERSON_AND_ORGANIZATION_ROLE ( 'creator' ) ;
#47 = ORGANIZATION ( 'UNSPECIFIED', 'UNSPECIFIED', '' ) ;
#48 = ORIENTED_EDGE ( 'NONE', *, *, #129, .T. ) ;
#49 = COORDINATED_UNIVERSAL_TIME_OFFSET ( 5, 0, .BEHIND. ) ;
#50 =( GEOMETRIC_REPRESENTATION_CONTEXT ( 3 ) GLOBAL_UNCERTAINTY_ASSIGNED_CONTEXT ( ( #149 ) ) GLOBAL_UNIT_ASSIGNED_CONTEXT ( ( #125, #44, #141 ) ) REPRESENTATION_CONTEXT ( 'NONE', 'WORKASPACE' ) );
#51 = ORIENTED_EDGE ( 'NONE', *, *, #99, .F. ) ;
#52 = MANIFOLD_SOLID_BREP ( 'Boss-Extrude1', #116 ) ;
#53 = CC_DESIGN_APPROVAL ( #45, ( #17 ) ) ;
#54 = LOCAL_TIME ( 13, 3, 45.00000000000000000, #49 ) ;
#55 = VERTEX_POINT ( 'NONE', #94 ) ;
#56 = DATE_AND_TIME ( #126, #11 ) ;
#57 = CARTESIAN_POINT ( 'NONE',  ( 25.00000000000000000, 3.061616997868383000E-015, 1.500000000000000000 ) ) ;
#58 = APPROVAL_STATUS ( 'not_yet_approved' ) ;
#59 = VECTOR ( 'NONE', #139, 1000.000000000000000 ) ;
#60 = AXIS2_PLACEMENT_3D ( 'NONE', #155, #14, #95 ) ;
#61 = ORIENTED_EDGE ( 'NONE', *, *, #105, .T. ) ;
#62 = CC_DESIGN_SECURITY_CLASSIFICATION ( #17, ( #152 ) ) ;
#63 = CIRCLE ( 'NONE', #25, 25.00000000000000000 ) ;
#64 = PERSON_AND_ORGANIZATION ( #87, #47 ) ;
#65 = SHAPE_DEFINITION_REPRESENTATION ( #6, #136 ) ;
#66 = DIRECTION ( 'NONE',  ( -1.000000000000000000, 0.0000000000000000000, 0.0000000000000000000 ) ) ;
#67 = DIRECTION ( 'NONE',  ( 0.0000000000000000000, 0.0000000000000000000, 1.000000000000000000 ) ) ;
#68 = DIRECTION ( 'NONE',  ( 0.0000000000000000000, 0.0000000000000000000, 1.000000000000000000 ) ) ;
#69 = COORDINATED_UNIVERSAL_TIME_OFFSET ( 5, 0, .BEHIND. ) ;
#70 = CARTESIAN_POINT ( 'NONE',  ( 0.0000000000000000000, 0.0000000000000000000, -1.500000000000000000 ) ) ;
#71 = PRODUCT_RELATED_PRODUCT_CATEGORY ( 'detail', '', ( #73 ) ) ;
#72 = PERSON_AND_ORGANIZATION_ROLE ( 'creator' ) ;
#73 = PRODUCT ( 'Web Model 68811_68811', 'Web Model 68811_68811', '', ( #3 ) ) ;
#74 = ORIENTED_EDGE ( 'NONE', *, *, #76, .T. ) ;
#75 = DATE_AND_TIME ( #79, #164 ) ;
#76 = EDGE_CURVE ( 'NONE', #159, #150, #162, .T. ) ;
#77 = DIRECTION ( 'NONE',  ( -0.0000000000000000000, -0.0000000000000000000, -1.000000000000000000 ) ) ;
#78 = ORIENTED_EDGE ( 'NONE', *, *, #117, .T. ) ;
#79 = CALENDAR_DATE ( 2017, 6, 3 ) ;
#80 = DIRECTION ( 'NONE',  ( 1.000000000000000000, 0.0000000000000000000, 0.0000000000000000000 ) ) ;
#81 = DIRECTION ( 'NONE',  ( 1.000000000000000000, 0.0000000000000000000, 0.0000000000000000000 ) ) ;
#82 = ADVANCED_FACE ( 'NONE', ( #91 ), #153, .F. ) ;
#83 = SECURITY_CLASSIFICATION_LEVEL ( 'unclassified' ) ;
#84 = AXIS2_PLACEMENT_3D ( 'NONE', #2, #109, #81 ) ;
#85 = ORIENTED_EDGE ( 'NONE', *, *, #105, .F. ) ;
#86 = APPROVAL_DATE_TIME ( #75, #161 ) ;
#87 = PERSON ( 'UNSPECIFIED', 'UNSPECIFIED', 'UNSPECIFIED', ('UNSPECIFIED'), ('UNSPECIFIED'), ('UNSPECIFIED') ) ;
#88 = EDGE_CURVE ( 'NONE', #55, #150, #170, .T. ) ;
#89 = ORIENTED_EDGE ( 'NONE', *, *, #99, .T. ) ;
#90 = ORIENTED_EDGE ( 'NONE', *, *, #88, .T. ) ;
#91 = FACE_OUTER_BOUND ( 'NONE', #107, .T. ) ;
#92 = PERSON_AND_ORGANIZATION ( #87, #47 ) ;
#93 = CC_DESIGN_PERSON_AND_ORGANIZATION_ASSIGNMENT ( #146, #97, ( #73 ) ) ;
#94 = CARTESIAN_POINT ( 'NONE',  ( 25.00000000000000000, 3.061616997868383000E-015, -1.500000000000000000 ) ) ;
#95 = DIRECTION ( 'NONE',  ( -1.000000000000000000, 0.0000000000000000000, 0.0000000000000000000 ) ) ;
#96 = CARTESIAN_POINT ( 'NONE',  ( -25.00000000000000000, 0.0000000000000000000, -1.500000000000000000 ) ) ;
#97 = PERSON_AND_ORGANIZATION_ROLE ( 'design_owner' ) ;
#98 = DATE_TIME_ROLE ( 'classification_date' ) ;
#99 = EDGE_CURVE ( 'NONE', #120, #159, #133, .T. ) ;
#100 = FACE_OUTER_BOUND ( 'NONE', #41, .T. ) ;
#101 = COORDINATED_UNIVERSAL_TIME_OFFSET ( 5, 0, .BEHIND. ) ;
#102 = DESIGN_CONTEXT ( 'detailed design', #18, 'design' ) ;
#103 = PRODUCT_DEFINITION ( 'UNKNOWN', '', #152, #102 ) ;
#104 = PERSON_AND_ORGANIZATION ( #87, #47 ) ;
#105 = EDGE_CURVE ( 'NONE', #120, #55, #28, .T. ) ;
#106 = DIRECTION ( 'NONE',  ( -0.0000000000000000000, -0.0000000000000000000, -1.000000000000000000 ) ) ;
#107 = EDGE_LOOP ( 'NONE', ( #30, #9 ) ) ;
#108 = APPROVAL_PERSON_ORGANIZATION ( #104, #161, #157 ) ;
#109 = DIRECTION ( 'NONE',  ( 0.0000000000000000000, 0.0000000000000000000, 1.000000000000000000 ) ) ;
#110 = APPLICATION_PROTOCOL_DEFINITION ( 'international standard', 'config_control_design', 1994, #18 ) ;
#111 = APPROVAL_ROLE ( '' ) ;
#112 = DATE_AND_TIME ( #23, #118 ) ;
#113 = APPROVAL ( #34, 'UNSPECIFIED' ) ;
#114 = FACE_OUTER_BOUND ( 'NONE', #22, .T. ) ;
#115 = PERSON_AND_ORGANIZATION ( #87, #47 ) ;
#116 = CLOSED_SHELL ( 'NONE', ( #142, #33, #19, #82 ) ) ;
#117 = EDGE_CURVE ( 'NONE', #159, #120, #63, .T. ) ;
#118 = LOCAL_TIME ( 13, 3, 45.00000000000000000, #69 ) ;
#119 = PLANE ( 'NONE',  #158 ) ;
#120 = VERTEX_POINT ( 'NONE', #15 ) ;
#121 = CC_DESIGN_APPROVAL ( #113, ( #103 ) ) ;
#122 = COORDINATED_UNIVERSAL_TIME_OFFSET ( 5, 0, .BEHIND. ) ;
#123 = DIRECTION ( 'NONE',  ( 0.0000000000000000000, 0.0000000000000000000, 1.000000000000000000 ) ) ;
#124 = DIRECTION ( 'NONE',  ( 0.0000000000000000000, 0.0000000000000000000, 1.000000000000000000 ) ) ;
#125 =( LENGTH_UNIT ( ) NAMED_UNIT ( * ) SI_UNIT ( .MILLI., .METRE. ) );
#126 = CALENDAR_DATE ( 2017, 6, 3 ) ;
#127 = APPROVAL_PERSON_ORGANIZATION ( #38, #45, #111 ) ;
#128 = APPROVAL_ROLE ( '' ) ;
#129 = EDGE_CURVE ( 'NONE', #150, #55, #172, .T. ) ;
#130 = ORIENTED_EDGE ( 'NONE', *, *, #117, .F. ) ;
#131 = PERSON_AND_ORGANIZATION ( #87, #47 ) ;
#132 = CC_DESIGN_PERSON_AND_ORGANIZATION_ASSIGNMENT ( #64, #169, ( #152 ) ) ;
#133 = CIRCLE ( 'NONE', #12, 25.00000000000000000 ) ;
#134 = CALENDAR_DATE ( 2017, 6, 3 ) ;
#135 = CC_DESIGN_PERSON_AND_ORGANIZATION_ASSIGNMENT ( #131, #46, ( #103 ) ) ;
#136 = ADVANCED_BREP_SHAPE_REPRESENTATION ( 'Web Model 68811_68811', ( #52, #84 ), #50 ) ;
#137 = VECTOR ( 'NONE', #106, 1000.000000000000000 ) ;
#138 = DATE_AND_TIME ( #134, #147 ) ;
#139 = DIRECTION ( 'NONE',  ( -0.0000000000000000000, -0.0000000000000000000, -1.000000000000000000 ) ) ;
#140 = EDGE_LOOP ( 'NONE', ( #85, #130, #74, #48 ) ) ;
#141 =( NAMED_UNIT ( * ) SI_UNIT ( $, .STERADIAN. ) SOLID_ANGLE_UNIT ( ) );
#142 = ADVANCED_FACE ( 'NONE', ( #100 ), #144, .T. ) ;
#143 = DATE_TIME_ROLE ( 'creation_date' ) ;
#144 = CYLINDRICAL_SURFACE ( 'NONE', #60, 25.00000000000000000 ) ;
#145 = CC_DESIGN_DATE_AND_TIME_ASSIGNMENT ( #56, #143, ( #103 ) ) ;
#146 = PERSON_AND_ORGANIZATION ( #87, #47 ) ;
#147 = LOCAL_TIME ( 13, 3, 45.00000000000000000, #101 ) ;
#148 = AXIS2_PLACEMENT_3D ( 'NONE', #31, #123, #42 ) ;
#149 = UNCERTAINTY_MEASURE_WITH_UNIT (LENGTH_MEASURE( 1.000000000000000100E-005 ), #125, 'distance_accuracy_value', 'NONE');
#150 = VERTEX_POINT ( 'NONE', #96 ) ;
#151 = DIRECTION ( 'NONE',  ( 1.000000000000000000, 0.0000000000000000000, -0.0000000000000000000 ) ) ;
#152 = PRODUCT_DEFINITION_FORMATION_WITH_SPECIFIED_SOURCE ( 'ANY', '', #73, .NOT_KNOWN. ) ;
#153 = PLANE ( 'NONE',  #5 ) ;
#154 = CARTESIAN_POINT ( 'NONE',  ( 0.0000000000000000000, 0.0000000000000000000, 1.500000000000000000 ) ) ;
#155 = CARTESIAN_POINT ( 'NONE',  ( 0.0000000000000000000, 0.0000000000000000000, 1.500000000000000000 ) ) ;
#156 = APPLICATION_PROTOCOL_DEFINITION ( 'international standard', 'config_control_design', 1994, #168 ) ;
#157 = APPROVAL_ROLE ( '' ) ;
#158 = AXIS2_PLACEMENT_3D ( 'NONE', #163, #29, #151 ) ;
#159 = VERTEX_POINT ( 'NONE', #16 ) ;
#160 = DATE_AND_TIME ( #20, #54 ) ;
#161 = APPROVAL ( #58, 'UNSPECIFIED' ) ;
#162 = LINE ( 'NONE', #40, #59 ) ;
#163 = CARTESIAN_POINT ( 'NONE',  ( 0.0000000000000000000, 0.0000000000000000000, 1.500000000000000000 ) ) ;
#164 = LOCAL_TIME ( 13, 3, 45.00000000000000000, #24 ) ;
#165 = DIRECTION ( 'NONE',  ( 1.000000000000000000, 0.0000000000000000000, -0.0000000000000000000 ) ) ;
#166 = DIRECTION ( 'NONE',  ( 1.000000000000000000, 0.0000000000000000000, 0.0000000000000000000 ) ) ;
#167 = DIRECTION ( 'NONE',  ( 0.0000000000000000000, 0.0000000000000000000, 1.000000000000000000 ) ) ;
#168 = APPLICATION_CONTEXT ( 'configuration controlled 3d designs of mechanical parts and assemblies' ) ;
#169 = PERSON_AND_ORGANIZATION_ROLE ( 'design_supplier' ) ;
#170 = CIRCLE ( 'NONE', #148, 25.00000000000000000 ) ;
#171 = CC_DESIGN_APPROVAL ( #161, ( #152 ) ) ;
#172 = CIRCLE ( 'NONE', #35, 25.00000000000000000 ) ;
#173 = AXIS2_PLACEMENT_3D ( 'NONE', #39, #77, #66 ) ;
#174 = APPROVAL_DATE_TIME ( #138, #45 ) ;
#175 = CC_DESIGN_PERSON_AND_ORGANIZATION_ASSIGNMENT ( #92, #72, ( #152 ) ) ;
ENDSEC;
END-ISO-10303-21;
