ISO-10303-21;
HEADER;
FILE_DESCRIPTION (( 'STEP AP203' ),
    '1' );
FILE_NAME ('Web Model 11874_14830.step',
    '2020-10-07T17:16:00',
    ( '' ),
    ( '' ),
    'SwSTEP 2.0',
    'SolidWorks 2018',
    '' );
FILE_SCHEMA (( 'CONFIG_CONTROL_DESIGN' ));
ENDSEC;

DATA;
#1 = DIRECTION ( 'NONE',  ( 1.000000000000000000, 0.0000000000000000000, 0.0000000000000000000 ) ) ;
#2 = DIRECTION ( 'NONE',  ( -0.0000000000000000000, -0.0000000000000000000, -1.000000000000000000 ) ) ;
#3 = CARTESIAN_POINT ( 'NONE',  ( -12.69999999999999929, 0.0000000000000000000, -1.500000000000000000 ) ) ;
#4 = EDGE_CURVE ( 'NONE', #134, #31, #169, .T. ) ;
#5 = LOCAL_TIME ( 13, 16, 0.0000000000000000000, #151 ) ;
#6 = DIRECTION ( 'NONE',  ( 1.000000000000000000, 0.0000000000000000000, 0.0000000000000000000 ) ) ;
#7 = DIRECTION ( 'NONE',  ( 0.0000000000000000000, 0.0000000000000000000, 1.000000000000000000 ) ) ;
#8 = EDGE_LOOP ( 'NONE', ( #139, #149, #90, #166 ) ) ;
#9 = PRODUCT_DEFINITION ( 'UNKNOWN', '', #97, #142 ) ;
#10 = SECURITY_CLASSIFICATION_LEVEL ( 'unclassified' ) ;
#11 = CIRCLE ( 'NONE', #141, 12.69999999999999929 ) ;
#12 = ADVANCED_BREP_SHAPE_REPRESENTATION ( 'Web Model 11874_14830', ( #44, #43 ), #95 ) ;
#13 = CC_DESIGN_PERSON_AND_ORGANIZATION_ASSIGNMENT ( #69, #164, ( #97 ) ) ;
#14 = PRODUCT_DEFINITION_SHAPE ( 'NONE', 'NONE',  #9 ) ;
#15 = APPROVAL_PERSON_ORGANIZATION ( #110, #153, #49 ) ;
#16 = COORDINATED_UNIVERSAL_TIME_OFFSET ( 5, 0, .BEHIND. ) ;
#17 = APPROVAL_DATE_TIME ( #29, #77 ) ;
#18 = DIRECTION ( 'NONE',  ( -0.0000000000000000000, -0.0000000000000000000, -1.000000000000000000 ) ) ;
#19 = CC_DESIGN_PERSON_AND_ORGANIZATION_ASSIGNMENT ( #66, #38, ( #20 ) ) ;
#20 = SECURITY_CLASSIFICATION ( '', '', #10 ) ;
#21 = CALENDAR_DATE ( 2020, 7, 10 ) ;
#22 = APPROVAL_STATUS ( 'not_yet_approved' ) ;
#23 = CIRCLE ( 'NONE', #168, 12.69999999999999929 ) ;
#24 = DIRECTION ( 'NONE',  ( 0.0000000000000000000, 0.0000000000000000000, 1.000000000000000000 ) ) ;
#25 = EDGE_CURVE ( 'NONE', #160, #134, #61, .T. ) ;
#26 = EDGE_CURVE ( 'NONE', #160, #76, #123, .T. ) ;
#27 = CARTESIAN_POINT ( 'NONE',  ( -12.69999999999999929, 0.0000000000000000000, 1.500000000000000000 ) ) ;
#28 = DATE_AND_TIME ( #35, #117 ) ;
#29 = DATE_AND_TIME ( #21, #55 ) ;
#30 = CARTESIAN_POINT ( 'NONE',  ( 0.0000000000000000000, 0.0000000000000000000, -1.500000000000000000 ) ) ;
#31 = VERTEX_POINT ( 'NONE', #3 ) ;
#32 = LOCAL_TIME ( 13, 16, 0.0000000000000000000, #52 ) ;
#33 = CARTESIAN_POINT ( 'NONE',  ( 12.69999999999999929, 1.555301434917138433E-15, 1.500000000000000000 ) ) ;
#34 = AXIS2_PLACEMENT_3D ( 'NONE', #173, #7, #135 ) ;
#35 = CALENDAR_DATE ( 2020, 7, 10 ) ;
#36 = CARTESIAN_POINT ( 'NONE',  ( 0.0000000000000000000, 0.0000000000000000000, 1.500000000000000000 ) ) ;
#37 = FACE_OUTER_BOUND ( 'NONE', #8, .T. ) ;
#38 = PERSON_AND_ORGANIZATION_ROLE ( 'classification_officer' ) ;
#39 = ORIENTED_EDGE ( 'NONE', *, *, #130, .T. ) ;
#40 = ORIENTED_EDGE ( 'NONE', *, *, #152, .T. ) ;
#41 = ORGANIZATION ( 'UNSPECIFIED', 'UNSPECIFIED', '' ) ;
#42 = PERSON_AND_ORGANIZATION ( #137, #41 ) ;
#43 = AXIS2_PLACEMENT_3D ( 'NONE', #51, #143, #65 ) ;
#44 = MANIFOLD_SOLID_BREP ( 'Boss-Extrude1', #82 ) ;
#45 = DIRECTION ( 'NONE',  ( 0.0000000000000000000, 0.0000000000000000000, 1.000000000000000000 ) ) ;
#46 = CALENDAR_DATE ( 2020, 7, 10 ) ;
#47 = PLANE ( 'NONE',  #85 ) ;
#48 = PRODUCT ( 'Web Model 11874_14830', 'Web Model 11874_14830', '', ( #155 ) ) ;
#49 = APPROVAL_ROLE ( '' ) ;
#50 = APPROVAL_ROLE ( '' ) ;
#51 = CARTESIAN_POINT ( 'NONE',  ( 0.0000000000000000000, 0.0000000000000000000, 0.0000000000000000000 ) ) ;
#52 = COORDINATED_UNIVERSAL_TIME_OFFSET ( 5, 0, .BEHIND. ) ;
#53 = DATE_TIME_ROLE ( 'classification_date' ) ;
#54 = DATE_AND_TIME ( #167, #32 ) ;
#55 = LOCAL_TIME ( 13, 16, 0.0000000000000000000, #62 ) ;
#56 = AXIS2_PLACEMENT_3D ( 'NONE', #108, #70, #1 ) ;
#57 = CARTESIAN_POINT ( 'NONE',  ( 12.69999999999999929, 1.555301434917138433E-15, -1.500000000000000000 ) ) ;
#58 = EDGE_LOOP ( 'NONE', ( #99, #67 ) ) ;
#59 = DIRECTION ( 'NONE',  ( -0.0000000000000000000, -0.0000000000000000000, -1.000000000000000000 ) ) ;
#60 = APPROVAL_DATE_TIME ( #161, #153 ) ;
#61 = LINE ( 'NONE', #158, #78 ) ;
#62 = COORDINATED_UNIVERSAL_TIME_OFFSET ( 5, 0, .BEHIND. ) ;
#63 = DIRECTION ( 'NONE',  ( 0.0000000000000000000, 0.0000000000000000000, 1.000000000000000000 ) ) ;
#64 = APPLICATION_PROTOCOL_DEFINITION ( 'international standard', 'config_control_design', 1994, #165 ) ;
#65 = DIRECTION ( 'NONE',  ( 1.000000000000000000, 0.0000000000000000000, 0.0000000000000000000 ) ) ;
#66 = PERSON_AND_ORGANIZATION ( #137, #41 ) ;
#67 = ORIENTED_EDGE ( 'NONE', *, *, #4, .F. ) ;
#68 = FACE_OUTER_BOUND ( 'NONE', #136, .T. ) ;
#69 = PERSON_AND_ORGANIZATION ( #137, #41 ) ;
#70 = DIRECTION ( 'NONE',  ( 0.0000000000000000000, 0.0000000000000000000, 1.000000000000000000 ) ) ;
#71 = CC_DESIGN_DATE_AND_TIME_ASSIGNMENT ( #127, #53, ( #20 ) ) ;
#72 = DIRECTION ( 'NONE',  ( -1.000000000000000000, 0.0000000000000000000, 0.0000000000000000000 ) ) ;
#73 = ADVANCED_FACE ( 'NONE', ( #37 ), #98, .T. ) ;
#74 = DIRECTION ( 'NONE',  ( 0.0000000000000000000, 0.0000000000000000000, 1.000000000000000000 ) ) ;
#75 = APPROVAL_STATUS ( 'not_yet_approved' ) ;
#76 = VERTEX_POINT ( 'NONE', #27 ) ;
#77 = APPROVAL ( #101, 'UNSPECIFIED' ) ;
#78 = VECTOR ( 'NONE', #2, 1000.000000000000000 ) ;
#79 = LOCAL_TIME ( 13, 16, 0.0000000000000000000, #91 ) ;
#80 = APPROVAL ( #75, 'UNSPECIFIED' ) ;
#81 = CARTESIAN_POINT ( 'NONE',  ( 0.0000000000000000000, 0.0000000000000000000, 1.500000000000000000 ) ) ;
#82 = CLOSED_SHELL ( 'NONE', ( #73, #121, #148, #122 ) ) ;
#83 = DIRECTION ( 'NONE',  ( 1.000000000000000000, 0.0000000000000000000, -0.0000000000000000000 ) ) ;
#84 = CC_DESIGN_APPROVAL ( #77, ( #20 ) ) ;
#85 = AXIS2_PLACEMENT_3D ( 'NONE', #138, #74, #83 ) ;
#86 =( NAMED_UNIT ( * ) PLANE_ANGLE_UNIT ( ) SI_UNIT ( $, .RADIAN. ) );
#87 = PERSON_AND_ORGANIZATION ( #137, #41 ) ;
#88 = PERSON_AND_ORGANIZATION ( #137, #41 ) ;
#89 = CC_DESIGN_APPROVAL ( #80, ( #9 ) ) ;
#90 = ORIENTED_EDGE ( 'NONE', *, *, #4, .T. ) ;
#91 = COORDINATED_UNIVERSAL_TIME_OFFSET ( 5, 0, .BEHIND. ) ;
#92 = AXIS2_PLACEMENT_3D ( 'NONE', #105, #18, #131 ) ;
#93 = APPROVAL_PERSON_ORGANIZATION ( #157, #77, #50 ) ;
#94 = CC_DESIGN_SECURITY_CLASSIFICATION ( #20, ( #97 ) ) ;
#95 =( GEOMETRIC_REPRESENTATION_CONTEXT ( 3 ) GLOBAL_UNCERTAINTY_ASSIGNED_CONTEXT ( ( #145 ) ) GLOBAL_UNIT_ASSIGNED_CONTEXT ( ( #112, #86, #124 ) ) REPRESENTATION_CONTEXT ( 'NONE', 'WORKASPACE' ) );
#96 = ORIENTED_EDGE ( 'NONE', *, *, #25, .F. ) ;
#97 = PRODUCT_DEFINITION_FORMATION_WITH_SPECIFIED_SOURCE ( 'ANY', '', #48, .NOT_KNOWN. ) ;
#98 = CYLINDRICAL_SURFACE ( 'NONE', #92, 12.69999999999999929 ) ;
#99 = ORIENTED_EDGE ( 'NONE', *, *, #130, .F. ) ;
#100 = PERSON_AND_ORGANIZATION_ROLE ( 'design_owner' ) ;
#101 = APPROVAL_STATUS ( 'not_yet_approved' ) ;
#102 = ORIENTED_EDGE ( 'NONE', *, *, #107, .T. ) ;
#103 = LINE ( 'NONE', #146, #120 ) ;
#104 = CYLINDRICAL_SURFACE ( 'NONE', #156, 12.69999999999999929 ) ;
#105 = CARTESIAN_POINT ( 'NONE',  ( 0.0000000000000000000, 0.0000000000000000000, 1.500000000000000000 ) ) ;
#106 = CALENDAR_DATE ( 2020, 7, 10 ) ;
#107 = EDGE_CURVE ( 'NONE', #76, #31, #103, .T. ) ;
#108 = CARTESIAN_POINT ( 'NONE',  ( 0.0000000000000000000, 0.0000000000000000000, 1.500000000000000000 ) ) ;
#109 = CC_DESIGN_DATE_AND_TIME_ASSIGNMENT ( #54, #170, ( #9 ) ) ;
#110 = PERSON_AND_ORGANIZATION ( #137, #41 ) ;
#111 = CARTESIAN_POINT ( 'NONE',  ( 0.0000000000000000000, 0.0000000000000000000, -1.500000000000000000 ) ) ;
#112 =( LENGTH_UNIT ( ) NAMED_UNIT ( * ) SI_UNIT ( .MILLI., .METRE. ) );
#113 = EDGE_LOOP ( 'NONE', ( #96, #129, #102, #39 ) ) ;
#114 = PERSON_AND_ORGANIZATION_ROLE ( 'creator' ) ;
#115 = SHAPE_DEFINITION_REPRESENTATION ( #14, #12 ) ;
#116 = APPROVAL_DATE_TIME ( #28, #80 ) ;
#117 = LOCAL_TIME ( 13, 16, 0.0000000000000000000, #16 ) ;
#118 = FACE_OUTER_BOUND ( 'NONE', #58, .T. ) ;
#119 = APPROVAL_PERSON_ORGANIZATION ( #175, #80, #163 ) ;
#120 = VECTOR ( 'NONE', #59, 1000.000000000000000 ) ;
#121 = ADVANCED_FACE ( 'NONE', ( #171 ), #104, .T. ) ;
#122 = ADVANCED_FACE ( 'NONE', ( #118 ), #133, .F. ) ;
#123 = CIRCLE ( 'NONE', #56, 12.69999999999999929 ) ;
#124 =( NAMED_UNIT ( * ) SI_UNIT ( $, .STERADIAN. ) SOLID_ANGLE_UNIT ( ) );
#125 = APPLICATION_CONTEXT ( 'configuration controlled 3d designs of mechanical parts and assemblies' ) ;
#126 = CC_DESIGN_PERSON_AND_ORGANIZATION_ASSIGNMENT ( #88, #100, ( #48 ) ) ;
#127 = DATE_AND_TIME ( #106, #5 ) ;
#128 = AXIS2_PLACEMENT_3D ( 'NONE', #30, #45, #147 ) ;
#129 = ORIENTED_EDGE ( 'NONE', *, *, #152, .F. ) ;
#130 = EDGE_CURVE ( 'NONE', #31, #134, #11, .T. ) ;
#131 = DIRECTION ( 'NONE',  ( -1.000000000000000000, 0.0000000000000000000, 0.0000000000000000000 ) ) ;
#132 = DIRECTION ( 'NONE',  ( -0.0000000000000000000, -0.0000000000000000000, -1.000000000000000000 ) ) ;
#133 = PLANE ( 'NONE',  #34 ) ;
#134 = VERTEX_POINT ( 'NONE', #57 ) ;
#135 = DIRECTION ( 'NONE',  ( 1.000000000000000000, 0.0000000000000000000, -0.0000000000000000000 ) ) ;
#136 = EDGE_LOOP ( 'NONE', ( #40, #174 ) ) ;
#137 = PERSON ( 'UNSPECIFIED', 'UNSPECIFIED', 'UNSPECIFIED', ('UNSPECIFIED'), ('UNSPECIFIED'), ('UNSPECIFIED') ) ;
#138 = CARTESIAN_POINT ( 'NONE',  ( 0.0000000000000000000, 0.0000000000000000000, 1.500000000000000000 ) ) ;
#139 = ORIENTED_EDGE ( 'NONE', *, *, #26, .F. ) ;
#140 = DIRECTION ( 'NONE',  ( 1.000000000000000000, 0.0000000000000000000, 0.0000000000000000000 ) ) ;
#141 = AXIS2_PLACEMENT_3D ( 'NONE', #111, #63, #6 ) ;
#142 = DESIGN_CONTEXT ( 'detailed design', #165, 'design' ) ;
#143 = DIRECTION ( 'NONE',  ( 0.0000000000000000000, 0.0000000000000000000, 1.000000000000000000 ) ) ;
#144 = PERSON_AND_ORGANIZATION_ROLE ( 'creator' ) ;
#145 = UNCERTAINTY_MEASURE_WITH_UNIT (LENGTH_MEASURE( 1.000000000000000082E-05 ), #112, 'distance_accuracy_value', 'NONE');
#146 = CARTESIAN_POINT ( 'NONE',  ( -12.69999999999999929, 0.0000000000000000000, 1.500000000000000000 ) ) ;
#147 = DIRECTION ( 'NONE',  ( 1.000000000000000000, 0.0000000000000000000, 0.0000000000000000000 ) ) ;
#148 = ADVANCED_FACE ( 'NONE', ( #68 ), #47, .T. ) ;
#149 = ORIENTED_EDGE ( 'NONE', *, *, #25, .T. ) ;
#150 = PRODUCT_RELATED_PRODUCT_CATEGORY ( 'detail', '', ( #48 ) ) ;
#151 = COORDINATED_UNIVERSAL_TIME_OFFSET ( 5, 0, .BEHIND. ) ;
#152 = EDGE_CURVE ( 'NONE', #76, #160, #23, .T. ) ;
#153 = APPROVAL ( #22, 'UNSPECIFIED' ) ;
#154 = APPLICATION_PROTOCOL_DEFINITION ( 'international standard', 'config_control_design', 1994, #125 ) ;
#155 = MECHANICAL_CONTEXT ( 'NONE', #125, 'mechanical' ) ;
#156 = AXIS2_PLACEMENT_3D ( 'NONE', #81, #132, #72 ) ;
#157 = PERSON_AND_ORGANIZATION ( #137, #41 ) ;
#158 = CARTESIAN_POINT ( 'NONE',  ( 12.69999999999999929, 1.555301434917138433E-15, 1.500000000000000000 ) ) ;
#159 = CC_DESIGN_PERSON_AND_ORGANIZATION_ASSIGNMENT ( #42, #114, ( #97 ) ) ;
#160 = VERTEX_POINT ( 'NONE', #33 ) ;
#161 = DATE_AND_TIME ( #46, #79 ) ;
#162 = CC_DESIGN_PERSON_AND_ORGANIZATION_ASSIGNMENT ( #87, #144, ( #9 ) ) ;
#163 = APPROVAL_ROLE ( '' ) ;
#164 = PERSON_AND_ORGANIZATION_ROLE ( 'design_supplier' ) ;
#165 = APPLICATION_CONTEXT ( 'configuration controlled 3d designs of mechanical parts and assemblies' ) ;
#166 = ORIENTED_EDGE ( 'NONE', *, *, #107, .F. ) ;
#167 = CALENDAR_DATE ( 2020, 7, 10 ) ;
#168 = AXIS2_PLACEMENT_3D ( 'NONE', #36, #24, #140 ) ;
#169 = CIRCLE ( 'NONE', #128, 12.69999999999999929 ) ;
#170 = DATE_TIME_ROLE ( 'creation_date' ) ;
#171 = FACE_OUTER_BOUND ( 'NONE', #113, .T. ) ;
#172 = CC_DESIGN_APPROVAL ( #153, ( #97 ) ) ;
#173 = CARTESIAN_POINT ( 'NONE',  ( 0.0000000000000000000, 0.0000000000000000000, -1.500000000000000000 ) ) ;
#174 = ORIENTED_EDGE ( 'NONE', *, *, #26, .T. ) ;
#175 = PERSON_AND_ORGANIZATION ( #137, #41 ) ;
ENDSEC;
END-ISO-10303-21;
