ISO-10303-21;
HEADER;
FILE_DESCRIPTION (( 'STEP AP203' ),
    '1' );
FILE_NAME ('Web Model 47230_11927.step',
    '2019-01-07T15:30:32',
    ( '' ),
    ( '' ),
    'SwSTEP 2.0',
    'SolidWorks 2016',
    '' );
FILE_SCHEMA (( 'CONFIG_CONTROL_DESIGN' ));
ENDSEC;

DATA;
#1 =( LENGTH_UNIT ( ) NAMED_UNIT ( * ) SI_UNIT ( .MILLI., .METRE. ) );
#2 = CYLINDRICAL_SURFACE ( 'NONE', #27, 25.00000000000000000 ) ;
#3 = CYLINDRICAL_SURFACE ( 'NONE', #84, 25.00000000000000000 ) ;
#4 = CALENDAR_DATE ( 2019, 7, 1 ) ;
#5 = AXIS2_PLACEMENT_3D ( 'NONE', #107, #29, #73 ) ;
#6 = LINE ( 'NONE', #15, #43 ) ;
#7 = DIRECTION ( 'NONE',  ( 0.0000000000000000000, 0.0000000000000000000, 1.000000000000000000 ) ) ;
#8 = SECURITY_CLASSIFICATION ( '', '', #76 ) ;
#9 = DIRECTION ( 'NONE',  ( -1.000000000000000000, 0.0000000000000000000, 0.0000000000000000000 ) ) ;
#10 = FACE_OUTER_BOUND ( 'NONE', #31, .T. ) ;
#11 = CARTESIAN_POINT ( 'NONE',  ( 0.0000000000000000000, 0.0000000000000000000, 2.000000000000000000 ) ) ;
#12 = APPROVAL_ROLE ( '' ) ;
#13 = DIRECTION ( 'NONE',  ( -1.000000000000000000, 0.0000000000000000000, 0.0000000000000000000 ) ) ;
#14 = PERSON_AND_ORGANIZATION ( #78, #119 ) ;
#15 = CARTESIAN_POINT ( 'NONE',  ( -25.00000000000000000, 0.0000000000000000000, 2.000000000000000000 ) ) ;
#16 = DIRECTION ( 'NONE',  ( -0.0000000000000000000, -0.0000000000000000000, -1.000000000000000000 ) ) ;
#17 = DIRECTION ( 'NONE',  ( -0.0000000000000000000, -0.0000000000000000000, -1.000000000000000000 ) ) ;
#18 = VERTEX_POINT ( 'NONE', #118 ) ;
#19 = PRODUCT_DEFINITION_SHAPE ( 'NONE', 'NONE',  #53 ) ;
#20 = APPROVAL ( #171, 'UNSPECIFIED' ) ;
#21 = APPROVAL_PERSON_ORGANIZATION ( #100, #68, #141 ) ;
#22 = DIRECTION ( 'NONE',  ( -0.0000000000000000000, -0.0000000000000000000, -1.000000000000000000 ) ) ;
#23 = PERSON_AND_ORGANIZATION ( #78, #119 ) ;
#24 = CC_DESIGN_PERSON_AND_ORGANIZATION_ASSIGNMENT ( #86, #121, ( #35 ) ) ;
#25 = DIRECTION ( 'NONE',  ( 0.0000000000000000000, 0.0000000000000000000, 1.000000000000000000 ) ) ;
#26 = ORIENTED_EDGE ( 'NONE', *, *, #112, .T. ) ;
#27 = AXIS2_PLACEMENT_3D ( 'NONE', #11, #22, #9 ) ;
#28 = CC_DESIGN_APPROVAL ( #68, ( #53 ) ) ;
#29 = DIRECTION ( 'NONE',  ( 0.0000000000000000000, 0.0000000000000000000, 1.000000000000000000 ) ) ;
#30 = DIRECTION ( 'NONE',  ( 0.0000000000000000000, 0.0000000000000000000, 1.000000000000000000 ) ) ;
#31 = EDGE_LOOP ( 'NONE', ( #164, #114, #26, #42 ) ) ;
#32 = APPROVAL_DATE_TIME ( #60, #20 ) ;
#33 = VERTEX_POINT ( 'NONE', #160 ) ;
#34 = EDGE_LOOP ( 'NONE', ( #134, #54 ) ) ;
#35 = PRODUCT_DEFINITION_FORMATION_WITH_SPECIFIED_SOURCE ( 'ANY', '', #133, .NOT_KNOWN. ) ;
#36 = FACE_OUTER_BOUND ( 'NONE', #67, .T. ) ;
#37 = CC_DESIGN_APPROVAL ( #20, ( #8 ) ) ;
#38 =( NAMED_UNIT ( * ) PLANE_ANGLE_UNIT ( ) SI_UNIT ( $, .RADIAN. ) );
#39 = COORDINATED_UNIVERSAL_TIME_OFFSET ( 5, 0, .BEHIND. ) ;
#40 = DIRECTION ( 'NONE',  ( 1.000000000000000000, 0.0000000000000000000, 0.0000000000000000000 ) ) ;
#41 = AXIS2_PLACEMENT_3D ( 'NONE', #172, #102, #71 ) ;
#42 = ORIENTED_EDGE ( 'NONE', *, *, #117, .T. ) ;
#43 = VECTOR ( 'NONE', #16, 1000.000000000000000 ) ;
#44 = FACE_OUTER_BOUND ( 'NONE', #34, .T. ) ;
#45 = MECHANICAL_CONTEXT ( 'NONE', #88, 'mechanical' ) ;
#46 = DATE_TIME_ROLE ( 'creation_date' ) ;
#47 =( NAMED_UNIT ( * ) SI_UNIT ( $, .STERADIAN. ) SOLID_ANGLE_UNIT ( ) );
#48 = DIRECTION ( 'NONE',  ( 1.000000000000000000, 0.0000000000000000000, -0.0000000000000000000 ) ) ;
#49 = APPROVAL_STATUS ( 'not_yet_approved' ) ;
#50 = AXIS2_PLACEMENT_3D ( 'NONE', #166, #7, #139 ) ;
#51 = LOCAL_TIME ( 10, 30, 32.00000000000000000, #39 ) ;
#52 = APPROVAL_DATE_TIME ( #148, #68 ) ;
#53 = PRODUCT_DEFINITION ( 'UNKNOWN', '', #35, #153 ) ;
#54 = ORIENTED_EDGE ( 'NONE', *, *, #70, .F. ) ;
#55 = PERSON_AND_ORGANIZATION ( #78, #119 ) ;
#56 = CARTESIAN_POINT ( 'NONE',  ( 25.00000000000000000, 3.061616997868383000E-015, 2.000000000000000000 ) ) ;
#57 = FACE_OUTER_BOUND ( 'NONE', #170, .T. ) ;
#58 = CC_DESIGN_APPROVAL ( #65, ( #35 ) ) ;
#59 = DIRECTION ( 'NONE',  ( 1.000000000000000000, 0.0000000000000000000, 0.0000000000000000000 ) ) ;
#60 = DATE_AND_TIME ( #104, #99 ) ;
#61 = DIRECTION ( 'NONE',  ( 0.0000000000000000000, 0.0000000000000000000, 1.000000000000000000 ) ) ;
#62 = SHAPE_DEFINITION_REPRESENTATION ( #19, #108 ) ;
#63 = ORIENTED_EDGE ( 'NONE', *, *, #115, .T. ) ;
#64 = ORIENTED_EDGE ( 'NONE', *, *, #126, .T. ) ;
#65 = APPROVAL ( #74, 'UNSPECIFIED' ) ;
#66 = ADVANCED_FACE ( 'NONE', ( #44 ), #97, .F. ) ;
#67 = EDGE_LOOP ( 'NONE', ( #63, #64 ) ) ;
#68 = APPROVAL ( #49, 'UNSPECIFIED' ) ;
#69 = DATE_AND_TIME ( #154, #51 ) ;
#70 = EDGE_CURVE ( 'NONE', #33, #111, #129, .T. ) ;
#71 = DIRECTION ( 'NONE',  ( 1.000000000000000000, 0.0000000000000000000, 0.0000000000000000000 ) ) ;
#72 = CARTESIAN_POINT ( 'NONE',  ( 0.0000000000000000000, 0.0000000000000000000, 2.000000000000000000 ) ) ;
#73 = DIRECTION ( 'NONE',  ( 1.000000000000000000, 0.0000000000000000000, 0.0000000000000000000 ) ) ;
#74 = APPROVAL_STATUS ( 'not_yet_approved' ) ;
#75 = CC_DESIGN_PERSON_AND_ORGANIZATION_ASSIGNMENT ( #143, #163, ( #35 ) ) ;
#76 = SECURITY_CLASSIFICATION_LEVEL ( 'unclassified' ) ;
#77 = VERTEX_POINT ( 'NONE', #56 ) ;
#78 = PERSON ( 'UNSPECIFIED', 'UNSPECIFIED', 'UNSPECIFIED', ('UNSPECIFIED'), ('UNSPECIFIED'), ('UNSPECIFIED') ) ;
#79 = VECTOR ( 'NONE', #85, 1000.000000000000000 ) ;
#80 = CC_DESIGN_SECURITY_CLASSIFICATION ( #8, ( #35 ) ) ;
#81 = CALENDAR_DATE ( 2019, 7, 1 ) ;
#82 = ADVANCED_FACE ( 'NONE', ( #57 ), #2, .T. ) ;
#83 = ORIENTED_EDGE ( 'NONE', *, *, #126, .F. ) ;
#84 = AXIS2_PLACEMENT_3D ( 'NONE', #72, #17, #13 ) ;
#85 = DIRECTION ( 'NONE',  ( -0.0000000000000000000, -0.0000000000000000000, -1.000000000000000000 ) ) ;
#86 = PERSON_AND_ORGANIZATION ( #78, #119 ) ;
#87 = LINE ( 'NONE', #146, #79 ) ;
#88 = APPLICATION_CONTEXT ( 'configuration controlled 3d designs of mechanical parts and assemblies' ) ;
#89 = CARTESIAN_POINT ( 'NONE',  ( -25.00000000000000000, 0.0000000000000000000, -2.000000000000000000 ) ) ;
#90 = PERSON_AND_ORGANIZATION_ROLE ( 'classification_officer' ) ;
#91 = LOCAL_TIME ( 10, 30, 32.00000000000000000, #150 ) ;
#92 = CIRCLE ( 'NONE', #106, 25.00000000000000000 ) ;
#93 = CC_DESIGN_PERSON_AND_ORGANIZATION_ASSIGNMENT ( #158, #147, ( #53 ) ) ;
#94 = CC_DESIGN_DATE_AND_TIME_ASSIGNMENT ( #69, #109, ( #8 ) ) ;
#95 = ORIENTED_EDGE ( 'NONE', *, *, #112, .F. ) ;
#96 = CALENDAR_DATE ( 2019, 7, 1 ) ;
#97 = PLANE ( 'NONE',  #50 ) ;
#98 = CC_DESIGN_PERSON_AND_ORGANIZATION_ASSIGNMENT ( #14, #130, ( #133 ) ) ;
#99 = LOCAL_TIME ( 10, 30, 32.00000000000000000, #168 ) ;
#100 = PERSON_AND_ORGANIZATION ( #78, #119 ) ;
#101 = DATE_AND_TIME ( #96, #137 ) ;
#102 = DIRECTION ( 'NONE',  ( 0.0000000000000000000, 0.0000000000000000000, 1.000000000000000000 ) ) ;
#103 = APPLICATION_CONTEXT ( 'configuration controlled 3d designs of mechanical parts and assemblies' ) ;
#104 = CALENDAR_DATE ( 2019, 7, 1 ) ;
#105 = CARTESIAN_POINT ( 'NONE',  ( 0.0000000000000000000, 0.0000000000000000000, 2.000000000000000000 ) ) ;
#106 = AXIS2_PLACEMENT_3D ( 'NONE', #122, #132, #40 ) ;
#107 = CARTESIAN_POINT ( 'NONE',  ( 0.0000000000000000000, 0.0000000000000000000, -2.000000000000000000 ) ) ;
#108 = ADVANCED_BREP_SHAPE_REPRESENTATION ( 'Web Model 47230_11927', ( #145, #41 ), #116 ) ;
#109 = DATE_TIME_ROLE ( 'classification_date' ) ;
#110 = APPROVAL_PERSON_ORGANIZATION ( #55, #65, #175 ) ;
#111 = VERTEX_POINT ( 'NONE', #89 ) ;
#112 = EDGE_CURVE ( 'NONE', #18, #111, #6, .T. ) ;
#113 = DATE_AND_TIME ( #4, #91 ) ;
#114 = ORIENTED_EDGE ( 'NONE', *, *, #115, .F. ) ;
#115 = EDGE_CURVE ( 'NONE', #18, #77, #124, .T. ) ;
#116 =( GEOMETRIC_REPRESENTATION_CONTEXT ( 3 ) GLOBAL_UNCERTAINTY_ASSIGNED_CONTEXT ( ( #135 ) ) GLOBAL_UNIT_ASSIGNED_CONTEXT ( ( #1, #38, #47 ) ) REPRESENTATION_CONTEXT ( 'NONE', 'WORKASPACE' ) );
#117 = EDGE_CURVE ( 'NONE', #111, #33, #155, .T. ) ;
#118 = CARTESIAN_POINT ( 'NONE',  ( -25.00000000000000000, 0.0000000000000000000, 2.000000000000000000 ) ) ;
#119 = ORGANIZATION ( 'UNSPECIFIED', 'UNSPECIFIED', '' ) ;
#120 = CARTESIAN_POINT ( 'NONE',  ( 0.0000000000000000000, 0.0000000000000000000, 2.000000000000000000 ) ) ;
#121 = PERSON_AND_ORGANIZATION_ROLE ( 'creator' ) ;
#122 = CARTESIAN_POINT ( 'NONE',  ( 0.0000000000000000000, 0.0000000000000000000, 2.000000000000000000 ) ) ;
#123 = LOCAL_TIME ( 10, 30, 32.00000000000000000, #159 ) ;
#124 = CIRCLE ( 'NONE', #127, 25.00000000000000000 ) ;
#125 = PRODUCT_RELATED_PRODUCT_CATEGORY ( 'detail', '', ( #133 ) ) ;
#126 = EDGE_CURVE ( 'NONE', #77, #18, #92, .T. ) ;
#127 = AXIS2_PLACEMENT_3D ( 'NONE', #120, #61, #59 ) ;
#128 = CLOSED_SHELL ( 'NONE', ( #82, #152, #149, #66 ) ) ;
#129 = CIRCLE ( 'NONE', #156, 25.00000000000000000 ) ;
#130 = PERSON_AND_ORGANIZATION_ROLE ( 'design_owner' ) ;
#131 = CC_DESIGN_DATE_AND_TIME_ASSIGNMENT ( #101, #46, ( #53 ) ) ;
#132 = DIRECTION ( 'NONE',  ( 0.0000000000000000000, 0.0000000000000000000, 1.000000000000000000 ) ) ;
#133 = PRODUCT ( 'Web Model 47230_11927', 'Web Model 47230_11927', '', ( #45 ) ) ;
#134 = ORIENTED_EDGE ( 'NONE', *, *, #117, .F. ) ;
#135 = UNCERTAINTY_MEASURE_WITH_UNIT (LENGTH_MEASURE( 1.000000000000000100E-005 ), #1, 'distance_accuracy_value', 'NONE');
#136 = CC_DESIGN_PERSON_AND_ORGANIZATION_ASSIGNMENT ( #23, #90, ( #8 ) ) ;
#137 = LOCAL_TIME ( 10, 30, 32.00000000000000000, #140 ) ;
#138 = APPROVAL_PERSON_ORGANIZATION ( #142, #20, #12 ) ;
#139 = DIRECTION ( 'NONE',  ( 1.000000000000000000, 0.0000000000000000000, -0.0000000000000000000 ) ) ;
#140 = COORDINATED_UNIVERSAL_TIME_OFFSET ( 5, 0, .BEHIND. ) ;
#141 = APPROVAL_ROLE ( '' ) ;
#142 = PERSON_AND_ORGANIZATION ( #78, #119 ) ;
#143 = PERSON_AND_ORGANIZATION ( #78, #119 ) ;
#144 = APPLICATION_PROTOCOL_DEFINITION ( 'international standard', 'config_control_design', 1994, #88 ) ;
#145 = MANIFOLD_SOLID_BREP ( 'Boss-Extrude1', #128 ) ;
#146 = CARTESIAN_POINT ( 'NONE',  ( 25.00000000000000000, 3.061616997868383000E-015, 2.000000000000000000 ) ) ;
#147 = PERSON_AND_ORGANIZATION_ROLE ( 'creator' ) ;
#148 = DATE_AND_TIME ( #81, #123 ) ;
#149 = ADVANCED_FACE ( 'NONE', ( #36 ), #174, .T. ) ;
#150 = COORDINATED_UNIVERSAL_TIME_OFFSET ( 5, 0, .BEHIND. ) ;
#151 = ORIENTED_EDGE ( 'NONE', *, *, #165, .T. ) ;
#152 = ADVANCED_FACE ( 'NONE', ( #10 ), #3, .T. ) ;
#153 = DESIGN_CONTEXT ( 'detailed design', #103, 'design' ) ;
#154 = CALENDAR_DATE ( 2019, 7, 1 ) ;
#155 = CIRCLE ( 'NONE', #5, 25.00000000000000000 ) ;
#156 = AXIS2_PLACEMENT_3D ( 'NONE', #167, #25, #157 ) ;
#157 = DIRECTION ( 'NONE',  ( 1.000000000000000000, 0.0000000000000000000, 0.0000000000000000000 ) ) ;
#158 = PERSON_AND_ORGANIZATION ( #78, #119 ) ;
#159 = COORDINATED_UNIVERSAL_TIME_OFFSET ( 5, 0, .BEHIND. ) ;
#160 = CARTESIAN_POINT ( 'NONE',  ( 25.00000000000000000, 3.061616997868383000E-015, -2.000000000000000000 ) ) ;
#161 = ORIENTED_EDGE ( 'NONE', *, *, #70, .T. ) ;
#162 = APPLICATION_PROTOCOL_DEFINITION ( 'international standard', 'config_control_design', 1994, #103 ) ;
#163 = PERSON_AND_ORGANIZATION_ROLE ( 'design_supplier' ) ;
#164 = ORIENTED_EDGE ( 'NONE', *, *, #165, .F. ) ;
#165 = EDGE_CURVE ( 'NONE', #77, #33, #87, .T. ) ;
#166 = CARTESIAN_POINT ( 'NONE',  ( 0.0000000000000000000, 0.0000000000000000000, -2.000000000000000000 ) ) ;
#167 = CARTESIAN_POINT ( 'NONE',  ( 0.0000000000000000000, 0.0000000000000000000, -2.000000000000000000 ) ) ;
#168 = COORDINATED_UNIVERSAL_TIME_OFFSET ( 5, 0, .BEHIND. ) ;
#169 = APPROVAL_DATE_TIME ( #113, #65 ) ;
#170 = EDGE_LOOP ( 'NONE', ( #83, #151, #161, #95 ) ) ;
#171 = APPROVAL_STATUS ( 'not_yet_approved' ) ;
#172 = CARTESIAN_POINT ( 'NONE',  ( 0.0000000000000000000, 0.0000000000000000000, 0.0000000000000000000 ) ) ;
#173 = AXIS2_PLACEMENT_3D ( 'NONE', #105, #30, #48 ) ;
#174 = PLANE ( 'NONE',  #173 ) ;
#175 = APPROVAL_ROLE ( '' ) ;
ENDSEC;
END-ISO-10303-21;
