ISO-10303-21;
HEADER;
FILE_DESCRIPTION (( 'STEP AP203' ),
    '1' );
FILE_NAME ('Web Model 11877_11877.step',
    '2019-01-02T18:29:02',
    ( '' ),
    ( '' ),
    'SwSTEP 2.0',
    'SolidWorks 2016',
    '' );
FILE_SCHEMA (( 'CONFIG_CONTROL_DESIGN' ));
ENDSEC;

DATA;
#1 = CIRCLE ( 'NONE', #139, 12.45000000000000300 ) ;
#2 = ORIENTED_EDGE ( 'NONE', *, *, #256, .F. ) ;
#3 = CC_DESIGN_PERSON_AND_ORGANIZATION_ASSIGNMENT ( #140, #24, ( #207 ) ) ;
#4 = MANIFOLD_SOLID_BREP ( 'Chamfer1', #229 ) ;
#5 = EDGE_CURVE ( 'NONE', #246, #67, #187, .T. ) ;
#6 =( NAMED_UNIT ( * ) PLANE_ANGLE_UNIT ( ) SI_UNIT ( $, .RADIAN. ) );
#7 = APPROVAL_STATUS ( 'not_yet_approved' ) ;
#8 = CONICAL_SURFACE ( 'NONE', #79, 12.50000000000000000, 0.7853981633974309600 ) ;
#9 = COORDINATED_UNIVERSAL_TIME_OFFSET ( 5, 0, .BEHIND. ) ;
#10 = CC_DESIGN_DATE_AND_TIME_ASSIGNMENT ( #227, #213, ( #179 ) ) ;
#11 = FACE_OUTER_BOUND ( 'NONE', #169, .T. ) ;
#12 = AXIS2_PLACEMENT_3D ( 'NONE', #166, #56, #114 ) ;
#13 = LOCAL_TIME ( 13, 29, 2.000000000000000000, #69 ) ;
#14 = ORIENTED_EDGE ( 'NONE', *, *, #5, .T. ) ;
#15 = CARTESIAN_POINT ( 'NONE',  ( 1.000000000000000000, 0.0000000000000000000, 12.50000000000000000 ) ) ;
#16 = PRODUCT_DEFINITION_FORMATION_WITH_SPECIFIED_SOURCE ( 'ANY', '', #165, .NOT_KNOWN. ) ;
#17 = AXIS2_PLACEMENT_3D ( 'NONE', #60, #196, #232 ) ;
#18 = ORIENTED_EDGE ( 'NONE', *, *, #244, .T. ) ;
#19 = DIRECTION ( 'NONE',  ( -1.000000000000000000, -0.0000000000000000000, -0.0000000000000000000 ) ) ;
#20 = DIRECTION ( 'NONE',  ( 1.000000000000000000, 0.0000000000000000000, 0.0000000000000000000 ) ) ;
#21 = DIRECTION ( 'NONE',  ( -1.000000000000000000, -0.0000000000000000000, -0.0000000000000000000 ) ) ;
#22 = DIRECTION ( 'NONE',  ( 0.0000000000000000000, 0.0000000000000000000, -1.000000000000000000 ) ) ;
#23 = FACE_OUTER_BOUND ( 'NONE', #157, .T. ) ;
#24 = PERSON_AND_ORGANIZATION_ROLE ( 'classification_officer' ) ;
#25 = APPLICATION_PROTOCOL_DEFINITION ( 'international standard', 'config_control_design', 1994, #61 ) ;
#26 = ORIENTED_EDGE ( 'NONE', *, *, #68, .F. ) ;
#27 = PERSON_AND_ORGANIZATION_ROLE ( 'design_supplier' ) ;
#28 = APPROVAL_ROLE ( '' ) ;
#29 = ORIENTED_EDGE ( 'NONE', *, *, #203, .T. ) ;
#30 = ADVANCED_FACE ( 'NONE', ( #11 ), #177, .T. ) ;
#31 = LOCAL_TIME ( 13, 29, 2.000000000000000000, #48 ) ;
#32 = VERTEX_POINT ( 'NONE', #269 ) ;
#33 = ADVANCED_FACE ( 'NONE', ( #78 ), #8, .T. ) ;
#34 = CYLINDRICAL_SURFACE ( 'NONE', #155, 12.50000000000000000 ) ;
#35 = EDGE_CURVE ( 'NONE', #175, #220, #109, .T. ) ;
#36 = DIRECTION ( 'NONE',  ( -1.000000000000000000, 0.0000000000000000000, 0.0000000000000000000 ) ) ;
#37 = ORIENTED_EDGE ( 'NONE', *, *, #164, .F. ) ;
#38 = CARTESIAN_POINT ( 'NONE',  ( 1.000000000000000000, 0.0000000000000000000, 0.0000000000000000000 ) ) ;
#39 = UNCERTAINTY_MEASURE_WITH_UNIT (LENGTH_MEASURE( 1.000000000000000100E-005 ), #242, 'distance_accuracy_value', 'NONE');
#40 = CARTESIAN_POINT ( 'NONE',  ( -1.000000000000000000, 1.527746881936323000E-015, 12.44999999999999900 ) ) ;
#41 = EDGE_CURVE ( 'NONE', #67, #220, #272, .T. ) ;
#42 = CARTESIAN_POINT ( 'NONE',  ( 1.000000000000000000, 0.0000000000000000000, 0.0000000000000000000 ) ) ;
#43 = APPROVAL_DATE_TIME ( #235, #113 ) ;
#44 = SHAPE_DEFINITION_REPRESENTATION ( #63, #94 ) ;
#45 = DIRECTION ( 'NONE',  ( 0.7071067811865597900, 8.659560562354782500E-017, 0.7071067811865352500 ) ) ;
#46 = CARTESIAN_POINT ( 'NONE',  ( -0.9499999999999968500, 1.530808498934191500E-015, -12.50000000000000000 ) ) ;
#47 = CARTESIAN_POINT ( 'NONE',  ( 0.9500000000000072800, 0.0000000000000000000, 0.0000000000000000000 ) ) ;
#48 = COORDINATED_UNIVERSAL_TIME_OFFSET ( 5, 0, .BEHIND. ) ;
#49 = AXIS2_PLACEMENT_3D ( 'NONE', #47, #240, #126 ) ;
#50 = CYLINDRICAL_SURFACE ( 'NONE', #170, 12.50000000000000000 ) ;
#51 = AXIS2_PLACEMENT_3D ( 'NONE', #206, #36, #160 ) ;
#52 = CALENDAR_DATE ( 2019, 2, 1 ) ;
#53 = ORIENTED_EDGE ( 'NONE', *, *, #135, .T. ) ;
#54 = ORIENTED_EDGE ( 'NONE', *, *, #107, .F. ) ;
#55 = ADVANCED_FACE ( 'NONE', ( #98 ), #248, .F. ) ;
#56 = DIRECTION ( 'NONE',  ( 1.000000000000000000, 0.0000000000000000000, 0.0000000000000000000 ) ) ;
#57 = DIRECTION ( 'NONE',  ( 1.000000000000000000, -0.0000000000000000000, -0.0000000000000000000 ) ) ;
#58 = EDGE_CURVE ( 'NONE', #175, #85, #142, .T. ) ;
#59 = CIRCLE ( 'NONE', #91, 12.50000000000000000 ) ;
#60 = CARTESIAN_POINT ( 'NONE',  ( 0.9500000000000072800, 0.0000000000000000000, 0.0000000000000000000 ) ) ;
#61 = APPLICATION_CONTEXT ( 'configuration controlled 3d designs of mechanical parts and assemblies' ) ;
#62 = PERSON_AND_ORGANIZATION ( #231, #105 ) ;
#63 = PRODUCT_DEFINITION_SHAPE ( 'NONE', 'NONE',  #179 ) ;
#64 = VERTEX_POINT ( 'NONE', #80 ) ;
#65 = PERSON_AND_ORGANIZATION_ROLE ( 'creator' ) ;
#66 = PERSON_AND_ORGANIZATION_ROLE ( 'design_owner' ) ;
#67 = VERTEX_POINT ( 'NONE', #270 ) ;
#68 = EDGE_CURVE ( 'NONE', #220, #67, #59, .T. ) ;
#69 = COORDINATED_UNIVERSAL_TIME_OFFSET ( 5, 0, .BEHIND. ) ;
#70 = LOCAL_TIME ( 13, 29, 2.000000000000000000, #133 ) ;
#71 = ORIENTED_EDGE ( 'NONE', *, *, #135, .F. ) ;
#72 = APPROVAL ( #152, 'UNSPECIFIED' ) ;
#73 = ADVANCED_FACE ( 'NONE', ( #23 ), #209, .T. ) ;
#74 = EDGE_LOOP ( 'NONE', ( #134, #202 ) ) ;
#75 = DIRECTION ( 'NONE',  ( 0.0000000000000000000, 0.0000000000000000000, -1.000000000000000000 ) ) ;
#76 = ADVANCED_FACE ( 'NONE', ( #245 ), #250, .T. ) ;
#77 = LINE ( 'NONE', #168, #219 ) ;
#78 = FACE_OUTER_BOUND ( 'NONE', #262, .T. ) ;
#79 = AXIS2_PLACEMENT_3D ( 'NONE', #253, #138, #75 ) ;
#80 = CARTESIAN_POINT ( 'NONE',  ( 0.9500000000000072800, 1.530808498934191500E-015, -12.50000000000000000 ) ) ;
#81 = ORIENTED_EDGE ( 'NONE', *, *, #203, .F. ) ;
#82 = CARTESIAN_POINT ( 'NONE',  ( 1.000000000000000000, 0.0000000000000000000, 12.45000000000000300 ) ) ;
#83 = DIRECTION ( 'NONE',  ( 1.000000000000000000, 0.0000000000000000000, 0.0000000000000000000 ) ) ;
#84 = APPROVAL_DATE_TIME ( #204, #162 ) ;
#85 = VERTEX_POINT ( 'NONE', #40 ) ;
#86 = CARTESIAN_POINT ( 'NONE',  ( 0.0000000000000000000, 0.0000000000000000000, 0.0000000000000000000 ) ) ;
#87 = PERSON_AND_ORGANIZATION ( #231, #105 ) ;
#88 = ORIENTED_EDGE ( 'NONE', *, *, #68, .T. ) ;
#89 = APPLICATION_PROTOCOL_DEFINITION ( 'international standard', 'config_control_design', 1994, #154 ) ;
#90 = SECURITY_CLASSIFICATION_LEVEL ( 'unclassified' ) ;
#91 = AXIS2_PLACEMENT_3D ( 'NONE', #119, #57, #185 ) ;
#92 = AXIS2_PLACEMENT_3D ( 'NONE', #117, #143, #208 ) ;
#93 = ORIENTED_EDGE ( 'NONE', *, *, #212, .F. ) ;
#94 = ADVANCED_BREP_SHAPE_REPRESENTATION ( 'Web Model 11877_11877', ( #4, #110 ), #136 ) ;
#95 = FACE_OUTER_BOUND ( 'NONE', #163, .T. ) ;
#96 = AXIS2_PLACEMENT_3D ( 'NONE', #112, #189, #249 ) ;
#97 = DIRECTION ( 'NONE',  ( 0.0000000000000000000, 0.0000000000000000000, -1.000000000000000000 ) ) ;
#98 = FACE_OUTER_BOUND ( 'NONE', #74, .T. ) ;
#99 = CARTESIAN_POINT ( 'NONE',  ( -0.9499999999999968500, 1.530808498934191500E-015, 12.50000000000000000 ) ) ;
#100 = CARTESIAN_POINT ( 'NONE',  ( -1.000000000000000000, 0.0000000000000000000, 0.0000000000000000000 ) ) ;
#101 = CARTESIAN_POINT ( 'NONE',  ( 0.9500000000000072800, 0.0000000000000000000, 12.50000000000000000 ) ) ;
#102 = LOCAL_TIME ( 13, 29, 2.000000000000000000, #9 ) ;
#103 = CARTESIAN_POINT ( 'NONE',  ( -1.000000000000000000, 0.0000000000000000000, -12.44999999999999900 ) ) ;
#104 = AXIS2_PLACEMENT_3D ( 'NONE', #150, #20, #123 ) ;
#105 = ORGANIZATION ( 'UNSPECIFIED', 'UNSPECIFIED', '' ) ;
#106 = ORIENTED_EDGE ( 'NONE', *, *, #107, .T. ) ;
#107 = EDGE_CURVE ( 'NONE', #267, #32, #218, .T. ) ;
#108 = CALENDAR_DATE ( 2019, 2, 1 ) ;
#109 = LINE ( 'NONE', #144, #111 ) ;
#110 = AXIS2_PLACEMENT_3D ( 'NONE', #86, #197, #217 ) ;
#111 = VECTOR ( 'NONE', #223, 1000.000000000000000 ) ;
#112 = CARTESIAN_POINT ( 'NONE',  ( -1.000000000000000000, 0.0000000000000000000, 0.0000000000000000000 ) ) ;
#113 = APPROVAL ( #216, 'UNSPECIFIED' ) ;
#114 = DIRECTION ( 'NONE',  ( 0.0000000000000000000, 0.0000000000000000000, -1.000000000000000000 ) ) ;
#115 = AXIS2_PLACEMENT_3D ( 'NONE', #100, #122, #274 ) ;
#116 = ORIENTED_EDGE ( 'NONE', *, *, #244, .F. ) ;
#117 = CARTESIAN_POINT ( 'NONE',  ( -0.9499999999999968500, 0.0000000000000000000, 0.0000000000000000000 ) ) ;
#118 = AXIS2_PLACEMENT_3D ( 'NONE', #257, #83, #171 ) ;
#119 = CARTESIAN_POINT ( 'NONE',  ( -0.9499999999999968500, 0.0000000000000000000, 0.0000000000000000000 ) ) ;
#120 = PERSON_AND_ORGANIZATION ( #231, #105 ) ;
#121 = ORIENTED_EDGE ( 'NONE', *, *, #58, .F. ) ;
#122 = DIRECTION ( 'NONE',  ( -1.000000000000000000, -0.0000000000000000000, -0.0000000000000000000 ) ) ;
#123 = DIRECTION ( 'NONE',  ( 0.0000000000000000000, 0.0000000000000000000, -1.000000000000000000 ) ) ;
#124 = APPROVAL_PERSON_ORGANIZATION ( #200, #162, #239 ) ;
#125 = LINE ( 'NONE', #211, #236 ) ;
#126 = DIRECTION ( 'NONE',  ( 0.0000000000000000000, 0.0000000000000000000, -1.000000000000000000 ) ) ;
#127 = PERSON_AND_ORGANIZATION_ROLE ( 'creator' ) ;
#128 = DIRECTION ( 'NONE',  ( 0.0000000000000000000, 0.0000000000000000000, 1.000000000000000000 ) ) ;
#129 = ORIENTED_EDGE ( 'NONE', *, *, #191, .T. ) ;
#130 = DESIGN_CONTEXT ( 'detailed design', #154, 'design' ) ;
#131 = MECHANICAL_CONTEXT ( 'NONE', #61, 'mechanical' ) ;
#132 = COORDINATED_UNIVERSAL_TIME_OFFSET ( 5, 0, .BEHIND. ) ;
#133 = COORDINATED_UNIVERSAL_TIME_OFFSET ( 5, 0, .BEHIND. ) ;
#134 = ORIENTED_EDGE ( 'NONE', *, *, #58, .T. ) ;
#135 = EDGE_CURVE ( 'NONE', #32, #267, #1, .T. ) ;
#136 =( GEOMETRIC_REPRESENTATION_CONTEXT ( 3 ) GLOBAL_UNCERTAINTY_ASSIGNED_CONTEXT ( ( #39 ) ) GLOBAL_UNIT_ASSIGNED_CONTEXT ( ( #242, #6, #237 ) ) REPRESENTATION_CONTEXT ( 'NONE', 'WORKASPACE' ) );
#137 = EDGE_LOOP ( 'NONE', ( #241, #129, #88, #180 ) ) ;
#138 = DIRECTION ( 'NONE',  ( 1.000000000000000000, -0.0000000000000000000, -0.0000000000000000000 ) ) ;
#139 = AXIS2_PLACEMENT_3D ( 'NONE', #172, #149, #22 ) ;
#140 = PERSON_AND_ORGANIZATION ( #231, #105 ) ;
#141 = LINE ( 'NONE', #82, #186 ) ;
#142 = CIRCLE ( 'NONE', #96, 12.44999999999999900 ) ;
#143 = DIRECTION ( 'NONE',  ( 1.000000000000000000, -0.0000000000000000000, -0.0000000000000000000 ) ) ;
#144 = CARTESIAN_POINT ( 'NONE',  ( -0.9499999999999968500, 0.0000000000000000000, -12.50000000000000000 ) ) ;
#145 = CC_DESIGN_DATE_AND_TIME_ASSIGNMENT ( #268, #260, ( #207 ) ) ;
#146 = DIRECTION ( 'NONE',  ( -1.000000000000000000, -0.0000000000000000000, -0.0000000000000000000 ) ) ;
#147 = DIRECTION ( 'NONE',  ( -1.000000000000000000, 0.0000000000000000000, 0.0000000000000000000 ) ) ;
#148 = APPROVAL_PERSON_ORGANIZATION ( #87, #72, #263 ) ;
#149 = DIRECTION ( 'NONE',  ( 1.000000000000000000, 0.0000000000000000000, 0.0000000000000000000 ) ) ;
#150 = CARTESIAN_POINT ( 'NONE',  ( 1.000000000000000000, 0.0000000000000000000, 0.0000000000000000000 ) ) ;
#151 = CC_DESIGN_PERSON_AND_ORGANIZATION_ASSIGNMENT ( #264, #66, ( #165 ) ) ;
#152 = APPROVAL_STATUS ( 'not_yet_approved' ) ;
#153 = ORIENTED_EDGE ( 'NONE', *, *, #35, .F. ) ;
#154 = APPLICATION_CONTEXT ( 'configuration controlled 3d designs of mechanical parts and assemblies' ) ;
#155 = AXIS2_PLACEMENT_3D ( 'NONE', #42, #146, #258 ) ;
#156 = VECTOR ( 'NONE', #45, 1000.000000000000000 ) ;
#157 = EDGE_LOOP ( 'NONE', ( #116, #121, #182, #255 ) ) ;
#158 = APPROVAL_PERSON_ORGANIZATION ( #62, #113, #28 ) ;
#159 = FACE_OUTER_BOUND ( 'NONE', #238, .T. ) ;
#160 = DIRECTION ( 'NONE',  ( 0.0000000000000000000, 0.0000000000000000000, 1.000000000000000000 ) ) ;
#161 = DIRECTION ( 'NONE',  ( 1.000000000000000000, -0.0000000000000000000, -0.0000000000000000000 ) ) ;
#162 = APPROVAL ( #7, 'UNSPECIFIED' ) ;
#163 = EDGE_LOOP ( 'NONE', ( #53, #106 ) ) ;
#164 = EDGE_CURVE ( 'NONE', #267, #64, #77, .T. ) ;
#165 = PRODUCT ( 'Web Model 11877_11877', 'Web Model 11877_11877', '', ( #131 ) ) ;
#166 = CARTESIAN_POINT ( 'NONE',  ( -1.000000000000000000, 0.0000000000000000000, 0.0000000000000000000 ) ) ;
#167 = PLANE ( 'NONE',  #118 ) ;
#168 = CARTESIAN_POINT ( 'NONE',  ( 1.000000000000000000, 1.524685264938455200E-015, -12.45000000000000300 ) ) ;
#169 = EDGE_LOOP ( 'NONE', ( #37, #71, #29, #2 ) ) ;
#170 = AXIS2_PLACEMENT_3D ( 'NONE', #38, #19, #128 ) ;
#171 = DIRECTION ( 'NONE',  ( 0.0000000000000000000, 0.0000000000000000000, -1.000000000000000000 ) ) ;
#172 = CARTESIAN_POINT ( 'NONE',  ( 1.000000000000000000, 0.0000000000000000000, 0.0000000000000000000 ) ) ;
#173 = CALENDAR_DATE ( 2019, 2, 1 ) ;
#174 = FACE_OUTER_BOUND ( 'NONE', #137, .T. ) ;
#175 = VERTEX_POINT ( 'NONE', #103 ) ;
#176 = CALENDAR_DATE ( 2019, 2, 1 ) ;
#177 = CONICAL_SURFACE ( 'NONE', #51, 12.45000000000000300, 0.7853981633975003500 ) ;
#178 = CARTESIAN_POINT ( 'NONE',  ( 1.000000000000000000, 1.527746881936323400E-015, -12.45000000000000300 ) ) ;
#179 = PRODUCT_DEFINITION ( 'UNKNOWN', '', #16, #130 ) ;
#180 = ORIENTED_EDGE ( 'NONE', *, *, #5, .F. ) ;
#181 = CC_DESIGN_SECURITY_CLASSIFICATION ( #207, ( #16 ) ) ;
#182 = ORIENTED_EDGE ( 'NONE', *, *, #35, .T. ) ;
#183 = PRODUCT_RELATED_PRODUCT_CATEGORY ( 'detail', '', ( #165 ) ) ;
#184 = AXIS2_PLACEMENT_3D ( 'NONE', #222, #161, #97 ) ;
#185 = DIRECTION ( 'NONE',  ( 0.0000000000000000000, 0.0000000000000000000, -1.000000000000000000 ) ) ;
#186 = VECTOR ( 'NONE', #259, 1000.000000000000000 ) ;
#187 = LINE ( 'NONE', #15, #230 ) ;
#188 = ADVANCED_FACE ( 'NONE', ( #159 ), #34, .T. ) ;
#189 = DIRECTION ( 'NONE',  ( -1.000000000000000000, -0.0000000000000000000, -0.0000000000000000000 ) ) ;
#190 = EDGE_LOOP ( 'NONE', ( #54, #215, #93, #81 ) ) ;
#191 = EDGE_CURVE ( 'NONE', #64, #220, #125, .T. ) ;
#192 = LOCAL_TIME ( 13, 29, 2.000000000000000000, #132 ) ;
#193 = CC_DESIGN_PERSON_AND_ORGANIZATION_ASSIGNMENT ( #221, #27, ( #16 ) ) ;
#194 = CIRCLE ( 'NONE', #49, 12.50000000000000000 ) ;
#195 = ORIENTED_EDGE ( 'NONE', *, *, #191, .F. ) ;
#196 = DIRECTION ( 'NONE',  ( -1.000000000000000000, 0.0000000000000000000, 0.0000000000000000000 ) ) ;
#197 = DIRECTION ( 'NONE',  ( 0.0000000000000000000, 0.0000000000000000000, 1.000000000000000000 ) ) ;
#198 = ORIENTED_EDGE ( 'NONE', *, *, #256, .T. ) ;
#199 = CC_DESIGN_PERSON_AND_ORGANIZATION_ASSIGNMENT ( #120, #127, ( #16 ) ) ;
#200 = PERSON_AND_ORGANIZATION ( #231, #105 ) ;
#201 = CIRCLE ( 'NONE', #17, 12.50000000000000000 ) ;
#202 = ORIENTED_EDGE ( 'NONE', *, *, #224, .T. ) ;
#203 = EDGE_CURVE ( 'NONE', #32, #246, #141, .T. ) ;
#204 = DATE_AND_TIME ( #108, #192 ) ;
#205 = CC_DESIGN_APPROVAL ( #162, ( #16 ) ) ;
#206 = CARTESIAN_POINT ( 'NONE',  ( 1.000000000000000000, 0.0000000000000000000, 0.0000000000000000000 ) ) ;
#207 = SECURITY_CLASSIFICATION ( '', '', #90 ) ;
#208 = DIRECTION ( 'NONE',  ( 0.0000000000000000000, 0.0000000000000000000, -1.000000000000000000 ) ) ;
#209 = CONICAL_SURFACE ( 'NONE', #92, 12.50000000000000000, 0.7853981633974309600 ) ;
#210 = ORIENTED_EDGE ( 'NONE', *, *, #224, .F. ) ;
#211 = CARTESIAN_POINT ( 'NONE',  ( 1.000000000000000000, 1.530808498934191500E-015, -12.50000000000000000 ) ) ;
#212 = EDGE_CURVE ( 'NONE', #246, #64, #201, .T. ) ;
#213 = DATE_TIME_ROLE ( 'creation_date' ) ;
#214 = PERSON_AND_ORGANIZATION ( #231, #105 ) ;
#215 = ORIENTED_EDGE ( 'NONE', *, *, #164, .T. ) ;
#216 = APPROVAL_STATUS ( 'not_yet_approved' ) ;
#217 = DIRECTION ( 'NONE',  ( 1.000000000000000000, 0.0000000000000000000, 0.0000000000000000000 ) ) ;
#218 = CIRCLE ( 'NONE', #104, 12.45000000000000300 ) ;
#219 = VECTOR ( 'NONE', #275, 1000.000000000000000 ) ;
#220 = VERTEX_POINT ( 'NONE', #46 ) ;
#221 = PERSON_AND_ORGANIZATION ( #231, #105 ) ;
#222 = CARTESIAN_POINT ( 'NONE',  ( -0.9499999999999968500, 0.0000000000000000000, 0.0000000000000000000 ) ) ;
#223 = DIRECTION ( 'NONE',  ( 0.7071067811865597900, 0.0000000000000000000, -0.7071067811865352500 ) ) ;
#224 = EDGE_CURVE ( 'NONE', #85, #175, #266, .T. ) ;
#225 = DIRECTION ( 'NONE',  ( -1.000000000000000000, -0.0000000000000000000, -0.0000000000000000000 ) ) ;
#226 = ADVANCED_FACE ( 'NONE', ( #95 ), #167, .T. ) ;
#227 = DATE_AND_TIME ( #254, #31 ) ;
#228 = LINE ( 'NONE', #99, #156 ) ;
#229 = CLOSED_SHELL ( 'NONE', ( #33, #76, #252, #188, #226, #55, #30, #73 ) ) ;
#230 = VECTOR ( 'NONE', #225, 1000.000000000000000 ) ;
#231 = PERSON ( 'UNSPECIFIED', 'UNSPECIFIED', 'UNSPECIFIED', ('UNSPECIFIED'), ('UNSPECIFIED'), ('UNSPECIFIED') ) ;
#232 = DIRECTION ( 'NONE',  ( 0.0000000000000000000, 0.0000000000000000000, -1.000000000000000000 ) ) ;
#233 = CARTESIAN_POINT ( 'NONE',  ( 1.000000000000000000, 0.0000000000000000000, 0.0000000000000000000 ) ) ;
#234 = DIRECTION ( 'NONE',  ( 0.0000000000000000000, 0.0000000000000000000, 1.000000000000000000 ) ) ;
#235 = DATE_AND_TIME ( #173, #102 ) ;
#236 = VECTOR ( 'NONE', #21, 1000.000000000000000 ) ;
#237 =( NAMED_UNIT ( * ) SI_UNIT ( $, .STERADIAN. ) SOLID_ANGLE_UNIT ( ) );
#238 = EDGE_LOOP ( 'NONE', ( #195, #198, #14, #251 ) ) ;
#239 = APPROVAL_ROLE ( '' ) ;
#240 = DIRECTION ( 'NONE',  ( -1.000000000000000000, 0.0000000000000000000, 0.0000000000000000000 ) ) ;
#241 = ORIENTED_EDGE ( 'NONE', *, *, #212, .T. ) ;
#242 =( LENGTH_UNIT ( ) NAMED_UNIT ( * ) SI_UNIT ( .MILLI., .METRE. ) );
#243 = CC_DESIGN_APPROVAL ( #113, ( #207 ) ) ;
#244 = EDGE_CURVE ( 'NONE', #85, #67, #228, .T. ) ;
#245 = FACE_OUTER_BOUND ( 'NONE', #190, .T. ) ;
#246 = VERTEX_POINT ( 'NONE', #101 ) ;
#247 = AXIS2_PLACEMENT_3D ( 'NONE', #233, #147, #234 ) ;
#248 = PLANE ( 'NONE',  #12 ) ;
#249 = DIRECTION ( 'NONE',  ( 0.0000000000000000000, 0.0000000000000000000, -1.000000000000000000 ) ) ;
#250 = CONICAL_SURFACE ( 'NONE', #247, 12.45000000000000300, 0.7853981633975003500 ) ;
#251 = ORIENTED_EDGE ( 'NONE', *, *, #41, .T. ) ;
#252 = ADVANCED_FACE ( 'NONE', ( #174 ), #50, .T. ) ;
#253 = CARTESIAN_POINT ( 'NONE',  ( -0.9499999999999968500, 0.0000000000000000000, 0.0000000000000000000 ) ) ;
#254 = CALENDAR_DATE ( 2019, 2, 1 ) ;
#255 = ORIENTED_EDGE ( 'NONE', *, *, #41, .F. ) ;
#256 = EDGE_CURVE ( 'NONE', #64, #246, #194, .T. ) ;
#257 = CARTESIAN_POINT ( 'NONE',  ( 1.000000000000000000, 0.0000000000000000000, 0.0000000000000000000 ) ) ;
#258 = DIRECTION ( 'NONE',  ( 0.0000000000000000000, 0.0000000000000000000, 1.000000000000000000 ) ) ;
#259 = DIRECTION ( 'NONE',  ( -0.7071067811865107100, 0.0000000000000000000, 0.7071067811865843200 ) ) ;
#260 = DATE_TIME_ROLE ( 'classification_date' ) ;
#261 = DATE_AND_TIME ( #52, #70 ) ;
#262 = EDGE_LOOP ( 'NONE', ( #210, #18, #26, #153 ) ) ;
#263 = APPROVAL_ROLE ( '' ) ;
#264 = PERSON_AND_ORGANIZATION ( #231, #105 ) ;
#265 = CC_DESIGN_PERSON_AND_ORGANIZATION_ASSIGNMENT ( #214, #65, ( #179 ) ) ;
#266 = CIRCLE ( 'NONE', #115, 12.44999999999999900 ) ;
#267 = VERTEX_POINT ( 'NONE', #178 ) ;
#268 = DATE_AND_TIME ( #176, #13 ) ;
#269 = CARTESIAN_POINT ( 'NONE',  ( 1.000000000000000000, 0.0000000000000000000, 12.45000000000000300 ) ) ;
#270 = CARTESIAN_POINT ( 'NONE',  ( -0.9499999999999968500, 0.0000000000000000000, 12.50000000000000000 ) ) ;
#271 = APPROVAL_DATE_TIME ( #261, #72 ) ;
#272 = CIRCLE ( 'NONE', #184, 12.50000000000000000 ) ;
#273 = CC_DESIGN_APPROVAL ( #72, ( #179 ) ) ;
#274 = DIRECTION ( 'NONE',  ( 0.0000000000000000000, 0.0000000000000000000, -1.000000000000000000 ) ) ;
#275 = DIRECTION ( 'NONE',  ( -0.7071067811865107100, 8.659560562355384000E-017, -0.7071067811865843200 ) ) ;
ENDSEC;
END-ISO-10303-21;
