ISO-10303-21;
HEADER;
FILE_DESCRIPTION (( 'STEP AP203' ),
    '1' );
FILE_NAME ('20125-E0W.STEP',
    '2015-06-08T17:21:55',
    ( 'Admin' ),
    ( '' ),
    'SwSTEP 2.0',
    'SolidWorks 2014',
    '' );
FILE_SCHEMA (( 'CONFIG_CONTROL_DESIGN' ));
ENDSEC;

DATA;
#1 = DIRECTION ( 'NONE',  ( -0.0000000000000000000, 3.061515884555943600E-016, -1.000000000000000000 ) ) ;
#2 = CONICAL_SURFACE ( 'NONE', #288, 6.350000000000000500, 0.7853981633976261400 ) ;
#3 = ORIENTED_EDGE ( 'NONE', *, *, #125, .F. ) ;
#4 = EDGE_LOOP ( 'NONE', ( #38, #3, #102, #293 ) ) ;
#5 = AXIS2_PLACEMENT_3D ( 'NONE', #149, #45, #260 ) ;
#6 = CALENDAR_DATE ( 2015, 8, 6 ) ;
#7 = CC_DESIGN_DATE_AND_TIME_ASSIGNMENT ( #178, #290, ( #191 ) ) ;
#8 = APPROVAL_DATE_TIME ( #296, #110 ) ;
#9 = PERSON_AND_ORGANIZATION_ROLE ( 'design_supplier' ) ;
#10 =( LENGTH_UNIT ( ) NAMED_UNIT ( * ) SI_UNIT ( .MILLI., .METRE. ) );
#11 = APPROVAL_PERSON_ORGANIZATION ( #21, #110, #93 ) ;
#12 = ORIENTED_EDGE ( 'NONE', *, *, #103, .F. ) ;
#13 = LINE ( 'NONE', #14, #170 ) ;
#14 = CARTESIAN_POINT ( 'NONE',  ( 0.0000000000000000000, 6.350000000000000500, 0.6048887917293864800 ) ) ;
#15 = ADVANCED_FACE ( 'NONE', ( #212 ), #194, .T. ) ;
#16 = DIRECTION ( 'NONE',  ( -0.0000000000000000000, 3.061515884555943600E-016, -1.000000000000000000 ) ) ;
#17 = COORDINATED_UNIVERSAL_TIME_OFFSET ( 5, 0, .BEHIND. ) ;
#18 = ORGANIZATION ( 'UNSPECIFIED', 'UNSPECIFIED', '' ) ;
#19 = LINE ( 'NONE', #61, #141 ) ;
#20 = EDGE_CURVE ( 'NONE', #59, #136, #157, .T. ) ;
#21 = PERSON_AND_ORGANIZATION ( #276, #18 ) ;
#22 = VERTEX_POINT ( 'NONE', #147 ) ;
#23 = FACE_OUTER_BOUND ( 'NONE', #30, .T. ) ;
#24 = CALENDAR_DATE ( 2015, 8, 6 ) ;
#25 = APPROVAL_PERSON_ORGANIZATION ( #86, #214, #210 ) ;
#26 = LOCAL_TIME ( 13, 21, 55.00000000000000000, #17 ) ;
#27 = DIRECTION ( 'NONE',  ( 0.0000000000000000000, 1.000000000000000000, 3.073328992872295900E-016 ) ) ;
#28 = DIRECTION ( 'NONE',  ( -0.0000000000000000000, 3.061515884555943600E-016, -1.000000000000000000 ) ) ;
#29 = EDGE_LOOP ( 'NONE', ( #243, #270, #79, #199 ) ) ;
#30 = EDGE_LOOP ( 'NONE', ( #254, #222, #140, #142 ) ) ;
#31 = CC_DESIGN_APPROVAL ( #110, ( #292 ) ) ;
#32 = COORDINATED_UNIVERSAL_TIME_OFFSET ( 5, 0, .BEHIND. ) ;
#33 = CARTESIAN_POINT ( 'NONE',  ( 0.0000000000000000000, -7.497309258292224700E-017, 0.6048887917293845900 ) ) ;
#34 = DATE_AND_TIME ( #271, #175 ) ;
#35 = AXIS2_PLACEMENT_3D ( 'NONE', #135, #258, #291 ) ;
#36 = EDGE_CURVE ( 'NONE', #37, #100, #211, .T. ) ;
#37 = VERTEX_POINT ( 'NONE', #177 ) ;
#38 = ORIENTED_EDGE ( 'NONE', *, *, #20, .F. ) ;
#39 = DIRECTION ( 'NONE',  ( 8.659560562354918100E-017, 0.7071067811865462400, 0.7071067811865489100 ) ) ;
#40 = AXIS2_PLACEMENT_3D ( 'NONE', #58, #121, #289 ) ;
#41 = CC_DESIGN_SECURITY_CLASSIFICATION ( #292, ( #80 ) ) ;
#42 = CALENDAR_DATE ( 2015, 8, 6 ) ;
#43 = EDGE_CURVE ( 'NONE', #136, #202, #50, .T. ) ;
#44 = LINE ( 'NONE', #155, #263 ) ;
#45 = DIRECTION ( 'NONE',  ( 0.0000000000000000000, -3.061515884555943600E-016, 1.000000000000000000 ) ) ;
#46 = MECHANICAL_CONTEXT ( 'NONE', #91, 'mechanical' ) ;
#47 = CARTESIAN_POINT ( 'NONE',  ( 0.0000000000000000000, -1.182694654365058200E-016, 0.7463101479666508500 ) ) ;
#48 = VERTEX_POINT ( 'NONE', #118 ) ;
#49 = CYLINDRICAL_SURFACE ( 'NONE', #104, 6.349999999999999600 ) ;
#50 = CIRCLE ( 'NONE', #162, 6.349999999999999600 ) ;
#51 = CC_DESIGN_APPROVAL ( #214, ( #191 ) ) ;
#52 = CIRCLE ( 'NONE', #40, 36.37999999999995300 ) ;
#53 = DIRECTION ( 'NONE',  ( 0.0000000000000000000, 0.7071067811866734700, -0.7071067811864215600 ) ) ;
#54 = CC_DESIGN_PERSON_AND_ORGANIZATION_ASSIGNMENT ( #235, #206, ( #217 ) ) ;
#55 = CC_DESIGN_PERSON_AND_ORGANIZATION_ASSIGNMENT ( #228, #84, ( #191 ) ) ;
#56 = AXIS2_PLACEMENT_3D ( 'NONE', #98, #16, #185 ) ;
#57 = DIRECTION ( 'NONE',  ( 0.0000000000000000000, 1.000000000000000000, 3.143334444888613700E-016 ) ) ;
#58 = CARTESIAN_POINT ( 'NONE',  ( 0.0000000000000000000, 4.173458453826655400E-015, -35.09999999999990900 ) ) ;
#59 = VERTEX_POINT ( 'NONE', #76 ) ;
#60 = COORDINATED_UNIVERSAL_TIME_OFFSET ( 5, 0, .BEHIND. ) ;
#61 = CARTESIAN_POINT ( 'NONE',  ( 7.776507174585693100E-016, -6.350000000000000500, 0.6048887917293825900 ) ) ;
#62 = DIRECTION ( 'NONE',  ( 0.0000000000000000000, 1.000000000000000000, 3.073328992872296400E-016 ) ) ;
#63 = SHAPE_DEFINITION_REPRESENTATION ( #284, #280 ) ;
#64 = CIRCLE ( 'NONE', #172, 6.208578643762691300 ) ;
#65 = APPROVAL_DATE_TIME ( #34, #123 ) ;
#66 = DIRECTION ( 'NONE',  ( 0.0000000000000000000, 1.000000000000000000, 3.143334444888610200E-016 ) ) ;
#67 = CARTESIAN_POINT ( 'NONE',  ( 0.0000000000000000000, 4.587922322135783100E-016, -1.138578643762691700 ) ) ;
#68 = ORIENTED_EDGE ( 'NONE', *, *, #299, .T. ) ;
#69 = AXIS2_PLACEMENT_3D ( 'NONE', #244, #240, #183 ) ;
#70 = CALENDAR_DATE ( 2015, 8, 6 ) ;
#71 = ADVANCED_FACE ( 'NONE', ( #179 ), #187, .T. ) ;
#72 = SECURITY_CLASSIFICATION_LEVEL ( 'unclassified' ) ;
#73 = DIRECTION ( 'NONE',  ( 8.659560562356472400E-017, -0.7071067811866730300, -0.7071067811864220100 ) ) ;
#74 = MANIFOLD_SOLID_BREP ( '20125-001-1-solid1', #227 ) ;
#75 = CONICAL_SURFACE ( 'NONE', #174, 6.208578643762691300, 0.7853981633974466100 ) ;
#76 = CARTESIAN_POINT ( 'NONE',  ( 7.689911568962143300E-016, 6.208578643762692200, -1.279999999999998900 ) ) ;
#77 = ADVANCED_FACE ( 'NONE', ( #23 ), #49, .T. ) ;
#78 = FACE_OUTER_BOUND ( 'NONE', #190, .T. ) ;
#79 = ORIENTED_EDGE ( 'NONE', *, *, #249, .T. ) ;
#80 = PRODUCT_DEFINITION_FORMATION_WITH_SPECIFIED_SOURCE ( 'ANY', '', #217, .NOT_KNOWN. ) ;
#81 = CIRCLE ( 'NONE', #186, 6.208578643762691300 ) ;
#82 = PLANE ( 'NONE',  #197 ) ;
#83 = PERSON_AND_ORGANIZATION ( #276, #18 ) ;
#84 = PERSON_AND_ORGANIZATION_ROLE ( 'creator' ) ;
#85 = CARTESIAN_POINT ( 'NONE',  ( 0.0000000000000000000, 5.020886050671748500E-016, -1.280000000000000000 ) ) ;
#86 = PERSON_AND_ORGANIZATION ( #276, #18 ) ;
#87 = ORIENTED_EDGE ( 'NONE', *, *, #193, .F. ) ;
#88 = AXIS2_PLACEMENT_3D ( 'NONE', #250, #269, #89 ) ;
#89 = DIRECTION ( 'NONE',  ( 0.0000000000000000000, 1.000000000000000000, 3.814675043379459900E-016 ) ) ;
#90 =( GEOMETRIC_REPRESENTATION_CONTEXT ( 3 ) GLOBAL_UNCERTAINTY_ASSIGNED_CONTEXT ( ( #120 ) ) GLOBAL_UNIT_ASSIGNED_CONTEXT ( ( #10, #268, #176 ) ) REPRESENTATION_CONTEXT ( 'NONE', 'WORKASPACE' ) );
#91 = APPLICATION_CONTEXT ( 'configuration controlled 3d designs of mechanical parts and assemblies' ) ;
#92 = CARTESIAN_POINT ( 'NONE',  ( 0.0000000000000000000, 4.587922322135783100E-016, -1.138578643762691700 ) ) ;
#93 = APPROVAL_ROLE ( '' ) ;
#94 = CARTESIAN_POINT ( 'NONE',  ( 0.0000000000000000000, 0.0000000000000000000, 0.0000000000000000000 ) ) ;
#95 = PERSON_AND_ORGANIZATION_ROLE ( 'classification_officer' ) ;
#96 = DIRECTION ( 'NONE',  ( 0.0000000000000000000, 1.000000000000000000, 3.073328992872296400E-016 ) ) ;
#97 = EDGE_LOOP ( 'NONE', ( #262, #171, #68, #119 ) ) ;
#98 = CARTESIAN_POINT ( 'NONE',  ( 0.0000000000000000000, -7.497309258292224700E-017, 0.6048887917293845900 ) ) ;
#99 = FACE_OUTER_BOUND ( 'NONE', #29, .T. ) ;
#100 = VERTEX_POINT ( 'NONE', #115 ) ;
#101 = LINE ( 'NONE', #144, #221 ) ;
#102 = ORIENTED_EDGE ( 'NONE', *, *, #273, .T. ) ;
#103 = EDGE_CURVE ( 'NONE', #220, #100, #52, .T. ) ;
#104 = AXIS2_PLACEMENT_3D ( 'NONE', #85, #198, #96 ) ;
#105 = ADVANCED_FACE ( 'NONE', ( #78 ), #145, .T. ) ;
#106 = CARTESIAN_POINT ( 'NONE',  ( 0.0000000000000000000, -7.497309258292224700E-017, 0.6048887917293845900 ) ) ;
#107 = ORIENTED_EDGE ( 'NONE', *, *, #103, .T. ) ;
#108 = AXIS2_PLACEMENT_3D ( 'NONE', #192, #295, #285 ) ;
#109 = LINE ( 'NONE', #126, #230 ) ;
#110 = APPROVAL ( #226, 'UNSPECIFIED' ) ;
#111 = DESIGN_CONTEXT ( 'detailed design', #129, 'design' ) ;
#112 = CARTESIAN_POINT ( 'NONE',  ( 0.0000000000000000000, 6.350000000000000500, -1.138578643762689700 ) ) ;
#113 = APPROVAL_STATUS ( 'not_yet_approved' ) ;
#114 = ORIENTED_EDGE ( 'NONE', *, *, #163, .F. ) ;
#115 = CARTESIAN_POINT ( 'NONE',  ( 0.0000000000000000000, 6.208578643762686900, 0.7463101479666528500 ) ) ;
#116 = ORIENTED_EDGE ( 'NONE', *, *, #193, .T. ) ;
#117 = PERSON_AND_ORGANIZATION ( #276, #18 ) ;
#118 = CARTESIAN_POINT ( 'NONE',  ( 0.0000000000000000000, 6.350000000000000500, 0.6048887917293864800 ) ) ;
#119 = ORIENTED_EDGE ( 'NONE', *, *, #256, .F. ) ;
#120 = UNCERTAINTY_MEASURE_WITH_UNIT (LENGTH_MEASURE( 1.000000000000000100E-005 ), #10, 'distance_accuracy_value', 'NONE');
#121 = DIRECTION ( 'NONE',  ( -1.000000000000000000, 0.0000000000000000000, 0.0000000000000000000 ) ) ;
#122 = CIRCLE ( 'NONE', #35, 36.37999999999995300 ) ;
#123 = APPROVAL ( #128, 'UNSPECIFIED' ) ;
#124 = CC_DESIGN_DATE_AND_TIME_ASSIGNMENT ( #132, #138, ( #292 ) ) ;
#125 = EDGE_CURVE ( 'NONE', #229, #59, #64, .T. ) ;
#126 = CARTESIAN_POINT ( 'NONE',  ( 0.0000000000000000000, -6.208578643762690400, -1.280000000000002900 ) ) ;
#127 = EDGE_CURVE ( 'NONE', #220, #37, #122, .T. ) ;
#128 = APPROVAL_STATUS ( 'not_yet_approved' ) ;
#129 = APPLICATION_CONTEXT ( 'configuration controlled 3d designs of mechanical parts and assemblies' ) ;
#130 = DIRECTION ( 'NONE',  ( 0.0000000000000000000, 1.000000000000000000, 3.073328992872296400E-016 ) ) ;
#131 = ORIENTED_EDGE ( 'NONE', *, *, #20, .T. ) ;
#132 = DATE_AND_TIME ( #6, #180 ) ;
#133 = CARTESIAN_POINT ( 'NONE',  ( 7.603315963338594400E-016, 6.208578643762692200, -1.279999999999998900 ) ) ;
#134 = EDGE_LOOP ( 'NONE', ( #196, #107, #251 ) ) ;
#135 = CARTESIAN_POINT ( 'NONE',  ( 0.0000000000000000000, 4.173458453826655400E-015, -35.09999999999990900 ) ) ;
#136 = VERTEX_POINT ( 'NONE', #112 ) ;
#137 = DIRECTION ( 'NONE',  ( -0.0000000000000000000, 3.061515884555943600E-016, -1.000000000000000000 ) ) ;
#138 = DATE_TIME_ROLE ( 'classification_date' ) ;
#139 = CARTESIAN_POINT ( 'NONE',  ( 0.0000000000000000000, 5.020886050671750500E-016, -1.280000000000000900 ) ) ;
#140 = ORIENTED_EDGE ( 'NONE', *, *, #43, .F. ) ;
#141 = VECTOR ( 'NONE', #73, 1000.000000000000000 ) ;
#142 = ORIENTED_EDGE ( 'NONE', *, *, #299, .F. ) ;
#143 = EDGE_CURVE ( 'NONE', #22, #48, #200, .T. ) ;
#144 = CARTESIAN_POINT ( 'NONE',  ( 7.776507174585692200E-016, -6.349999999999998800, -1.280000000000002000 ) ) ;
#145 = CONICAL_SURFACE ( 'NONE', #5, 6.208578643762691300, 0.7853981633974466100 ) ;
#146 = DIRECTION ( 'NONE',  ( 0.0000000000000000000, 0.0000000000000000000, 1.000000000000000000 ) ) ;
#147 = CARTESIAN_POINT ( 'NONE',  ( 7.776507174585693100E-016, -6.350000000000000500, 0.6048887917293825900 ) ) ;
#148 = ORIENTED_EDGE ( 'NONE', *, *, #249, .F. ) ;
#149 = CARTESIAN_POINT ( 'NONE',  ( 0.0000000000000000000, 5.020886050671750500E-016, -1.280000000000000900 ) ) ;
#150 = FACE_OUTER_BOUND ( 'NONE', #203, .T. ) ;
#151 = ORIENTED_EDGE ( 'NONE', *, *, #125, .T. ) ;
#152 = DIRECTION ( 'NONE',  ( 0.0000000000000000000, 1.000000000000000000, 3.061515884555943600E-016 ) ) ;
#153 = DATE_AND_TIME ( #42, #164 ) ;
#154 = ADVANCED_FACE ( 'NONE', ( #252 ), #75, .T. ) ;
#155 = CARTESIAN_POINT ( 'NONE',  ( 0.0000000000000000000, 6.350000000000000500, -1.279999999999998300 ) ) ;
#156 = VECTOR ( 'NONE', #39, 1000.000000000000000 ) ;
#157 = LINE ( 'NONE', #133, #156 ) ;
#158 = FACE_OUTER_BOUND ( 'NONE', #298, .T. ) ;
#159 = CARTESIAN_POINT ( 'NONE',  ( 0.0000000000000000000, 5.020886050671749500E-016, -1.280000000000000200 ) ) ;
#160 = DIRECTION ( 'NONE',  ( -0.0000000000000000000, 3.061515884555943600E-016, -1.000000000000000000 ) ) ;
#161 = APPROVAL_ROLE ( '' ) ;
#162 = AXIS2_PLACEMENT_3D ( 'NONE', #67, #300, #130 ) ;
#163 = EDGE_CURVE ( 'NONE', #59, #229, #81, .T. ) ;
#164 = LOCAL_TIME ( 13, 21, 55.00000000000000000, #32 ) ;
#165 = CIRCLE ( 'NONE', #69, 6.350000000000000500 ) ;
#166 = DIRECTION ( 'NONE',  ( 0.0000000000000000000, -0.7071067811865465700, 0.7071067811865484600 ) ) ;
#167 = AXIS2_PLACEMENT_3D ( 'NONE', #294, #264, #265 ) ;
#168 = PERSON_AND_ORGANIZATION ( #276, #18 ) ;
#169 = APPLICATION_PROTOCOL_DEFINITION ( 'international standard', 'config_control_design', 1994, #91 ) ;
#170 = VECTOR ( 'NONE', #53, 1000.000000000000000 ) ;
#171 = ORIENTED_EDGE ( 'NONE', *, *, #143, .T. ) ;
#172 = AXIS2_PLACEMENT_3D ( 'NONE', #139, #275, #66 ) ;
#173 = PERSON_AND_ORGANIZATION ( #276, #18 ) ;
#174 = AXIS2_PLACEMENT_3D ( 'NONE', #205, #204, #216 ) ;
#175 = LOCAL_TIME ( 13, 21, 55.00000000000000000, #261 ) ;
#176 =( NAMED_UNIT ( * ) SI_UNIT ( $, .STERADIAN. ) SOLID_ANGLE_UNIT ( ) );
#177 = CARTESIAN_POINT ( 'NONE',  ( 7.603315963338589500E-016, -6.208578643762693100, 0.7463101479666508500 ) ) ;
#178 = DATE_AND_TIME ( #70, #286 ) ;
#179 = FACE_OUTER_BOUND ( 'NONE', #282, .T. ) ;
#180 = LOCAL_TIME ( 13, 21, 55.00000000000000000, #301 ) ;
#181 = AXIS2_PLACEMENT_3D ( 'NONE', #92, #28, #62 ) ;
#182 = ORIENTED_EDGE ( 'NONE', *, *, #43, .T. ) ;
#183 = DIRECTION ( 'NONE',  ( 0.0000000000000000000, 1.000000000000000000, 3.073328992872295900E-016 ) ) ;
#184 = EDGE_CURVE ( 'NONE', #48, #22, #165, .T. ) ;
#185 = DIRECTION ( 'NONE',  ( 0.0000000000000000000, 1.000000000000000000, 3.073328992872295900E-016 ) ) ;
#186 = AXIS2_PLACEMENT_3D ( 'NONE', #223, #224, #232 ) ;
#187 = SPHERICAL_SURFACE ( 'NONE', #88, 36.37999999999995300 ) ;
#188 = CC_DESIGN_PERSON_AND_ORGANIZATION_ASSIGNMENT ( #168, #95, ( #292 ) ) ;
#189 = CIRCLE ( 'NONE', #108, 6.208578643762684200 ) ;
#190 = EDGE_LOOP ( 'NONE', ( #114, #131, #182, #231 ) ) ;
#191 = PRODUCT_DEFINITION ( 'UNKNOWN', '', #80, #111 ) ;
#192 = CARTESIAN_POINT ( 'NONE',  ( 0.0000000000000000000, -1.182694654365058200E-016, 0.7463101479666508500 ) ) ;
#193 = EDGE_CURVE ( 'NONE', #100, #37, #189, .T. ) ;
#194 = SPHERICAL_SURFACE ( 'NONE', #219, 36.37999999999995300 ) ;
#195 = DIRECTION ( 'NONE',  ( -0.0000000000000000000, 3.061515884555943600E-016, -1.000000000000000000 ) ) ;
#196 = ORIENTED_EDGE ( 'NONE', *, *, #127, .F. ) ;
#197 = AXIS2_PLACEMENT_3D ( 'NONE', #159, #137, #152 ) ;
#198 = DIRECTION ( 'NONE',  ( -0.0000000000000000000, 3.061515884555943600E-016, -1.000000000000000000 ) ) ;
#199 = ORIENTED_EDGE ( 'NONE', *, *, #143, .F. ) ;
#200 = CIRCLE ( 'NONE', #56, 6.350000000000000500 ) ;
#201 = AXIS2_PLACEMENT_3D ( 'NONE', #47, #195, #57 ) ;
#202 = VERTEX_POINT ( 'NONE', #272 ) ;
#203 = EDGE_LOOP ( 'NONE', ( #151, #209 ) ) ;
#204 = DIRECTION ( 'NONE',  ( 0.0000000000000000000, -3.061515884555943600E-016, 1.000000000000000000 ) ) ;
#205 = CARTESIAN_POINT ( 'NONE',  ( 0.0000000000000000000, 5.020886050671750500E-016, -1.280000000000000900 ) ) ;
#206 = PERSON_AND_ORGANIZATION_ROLE ( 'design_owner' ) ;
#207 = FACE_OUTER_BOUND ( 'NONE', #97, .T. ) ;
#208 = CIRCLE ( 'NONE', #181, 6.349999999999999600 ) ;
#209 = ORIENTED_EDGE ( 'NONE', *, *, #163, .T. ) ;
#210 = APPROVAL_ROLE ( '' ) ;
#211 = CIRCLE ( 'NONE', #201, 6.208578643762684200 ) ;
#212 = FACE_OUTER_BOUND ( 'NONE', #134, .T. ) ;
#213 = ORIENTED_EDGE ( 'NONE', *, *, #184, .F. ) ;
#214 = APPROVAL ( #113, 'UNSPECIFIED' ) ;
#215 = ADVANCED_FACE ( 'NONE', ( #207 ), #246, .T. ) ;
#216 = DIRECTION ( 'NONE',  ( 0.0000000000000000000, -1.000000000000000000, -3.143334444888610200E-016 ) ) ;
#217 = PRODUCT ( '20125-E0W', '20125-E0W', '', ( #46 ) ) ;
#218 = APPROVAL_DATE_TIME ( #153, #214 ) ;
#219 = AXIS2_PLACEMENT_3D ( 'NONE', #237, #267, #241 ) ;
#220 = VERTEX_POINT ( 'NONE', #248 ) ;
#221 = VECTOR ( 'NONE', #160, 1000.000000000000000 ) ;
#222 = ORIENTED_EDGE ( 'NONE', *, *, #266, .T. ) ;
#223 = CARTESIAN_POINT ( 'NONE',  ( 0.0000000000000000000, 5.020886050671750500E-016, -1.280000000000000900 ) ) ;
#224 = DIRECTION ( 'NONE',  ( -0.0000000000000000000, 3.061515884555943600E-016, -1.000000000000000000 ) ) ;
#225 = PRODUCT_RELATED_PRODUCT_CATEGORY ( 'detail', '', ( #217 ) ) ;
#226 = APPROVAL_STATUS ( 'not_yet_approved' ) ;
#227 = CLOSED_SHELL ( 'NONE', ( #105, #77, #283, #71, #257, #15, #239, #215, #154 ) ) ;
#228 = PERSON_AND_ORGANIZATION ( #276, #18 ) ;
#229 = VERTEX_POINT ( 'NONE', #255 ) ;
#230 = VECTOR ( 'NONE', #166, 1000.000000000000000 ) ;
#231 = ORIENTED_EDGE ( 'NONE', *, *, #273, .F. ) ;
#232 = DIRECTION ( 'NONE',  ( 0.0000000000000000000, 1.000000000000000000, 3.143334444888610200E-016 ) ) ;
#233 = EDGE_CURVE ( 'NONE', #37, #22, #19, .T. ) ;
#234 = DIRECTION ( 'NONE',  ( -0.0000000000000000000, 3.061515884555943600E-016, -1.000000000000000000 ) ) ;
#235 = PERSON_AND_ORGANIZATION ( #276, #18 ) ;
#236 = CC_DESIGN_PERSON_AND_ORGANIZATION_ASSIGNMENT ( #173, #274, ( #80 ) ) ;
#237 = CARTESIAN_POINT ( 'NONE',  ( 0.0000000000000000000, 4.173458453826655400E-015, -35.09999999999990900 ) ) ;
#238 = AXIS2_PLACEMENT_3D ( 'NONE', #106, #234, #245 ) ;
#239 = ADVANCED_FACE ( 'NONE', ( #99 ), #2, .T. ) ;
#240 = DIRECTION ( 'NONE',  ( -0.0000000000000000000, 3.061515884555943600E-016, -1.000000000000000000 ) ) ;
#241 = DIRECTION ( 'NONE',  ( 0.0000000000000000000, 1.000000000000000000, 3.814675043379459900E-016 ) ) ;
#242 = APPLICATION_PROTOCOL_DEFINITION ( 'international standard', 'config_control_design', 1994, #129 ) ;
#243 = ORIENTED_EDGE ( 'NONE', *, *, #233, .F. ) ;
#244 = CARTESIAN_POINT ( 'NONE',  ( 0.0000000000000000000, -7.497309258292224700E-017, 0.6048887917293845900 ) ) ;
#245 = DIRECTION ( 'NONE',  ( 0.0000000000000000000, 1.000000000000000000, 3.073328992872295900E-016 ) ) ;
#246 = CYLINDRICAL_SURFACE ( 'NONE', #167, 6.349999999999999600 ) ;
#247 = ORIENTED_EDGE ( 'NONE', *, *, #233, .T. ) ;
#248 = CARTESIAN_POINT ( 'NONE',  ( 0.0000000000000000000, -4.736703806538820700E-015, 1.280000000000045100 ) ) ;
#249 = EDGE_CURVE ( 'NONE', #100, #48, #13, .T. ) ;
#250 = CARTESIAN_POINT ( 'NONE',  ( 0.0000000000000000000, 4.173458453826655400E-015, -35.09999999999990900 ) ) ;
#251 = ORIENTED_EDGE ( 'NONE', *, *, #36, .F. ) ;
#252 = FACE_OUTER_BOUND ( 'NONE', #4, .T. ) ;
#253 = APPROVAL_PERSON_ORGANIZATION ( #117, #123, #161 ) ;
#254 = ORIENTED_EDGE ( 'NONE', *, *, #184, .T. ) ;
#255 = CARTESIAN_POINT ( 'NONE',  ( 0.0000000000000000000, -6.208578643762690400, -1.280000000000002900 ) ) ;
#256 = EDGE_CURVE ( 'NONE', #202, #136, #208, .T. ) ;
#257 = ADVANCED_FACE ( 'NONE', ( #150 ), #82, .T. ) ;
#258 = DIRECTION ( 'NONE',  ( 1.000000000000000000, 1.224646799147353200E-016, 3.749275628560214200E-032 ) ) ;
#259 = DIRECTION ( 'NONE',  ( 1.000000000000000000, 0.0000000000000000000, 0.0000000000000000000 ) ) ;
#260 = DIRECTION ( 'NONE',  ( 0.0000000000000000000, -1.000000000000000000, -3.143334444888610200E-016 ) ) ;
#261 = COORDINATED_UNIVERSAL_TIME_OFFSET ( 5, 0, .BEHIND. ) ;
#262 = ORIENTED_EDGE ( 'NONE', *, *, #266, .F. ) ;
#263 = VECTOR ( 'NONE', #297, 1000.000000000000000 ) ;
#264 = DIRECTION ( 'NONE',  ( -0.0000000000000000000, 3.061515884555943600E-016, -1.000000000000000000 ) ) ;
#265 = DIRECTION ( 'NONE',  ( 0.0000000000000000000, 1.000000000000000000, 3.073328992872296400E-016 ) ) ;
#266 = EDGE_CURVE ( 'NONE', #22, #202, #101, .T. ) ;
#267 = DIRECTION ( 'NONE',  ( 1.000000000000000000, 0.0000000000000000000, -0.0000000000000000000 ) ) ;
#268 =( NAMED_UNIT ( * ) PLANE_ANGLE_UNIT ( ) SI_UNIT ( $, .RADIAN. ) );
#269 = DIRECTION ( 'NONE',  ( 1.000000000000000000, 0.0000000000000000000, -0.0000000000000000000 ) ) ;
#270 = ORIENTED_EDGE ( 'NONE', *, *, #36, .T. ) ;
#271 = CALENDAR_DATE ( 2015, 8, 6 ) ;
#272 = CARTESIAN_POINT ( 'NONE',  ( 7.776507174585692200E-016, -6.349999999999998800, -1.138578643762693700 ) ) ;
#273 = EDGE_CURVE ( 'NONE', #229, #202, #109, .T. ) ;
#274 = PERSON_AND_ORGANIZATION_ROLE ( 'creator' ) ;
#275 = DIRECTION ( 'NONE',  ( -0.0000000000000000000, 3.061515884555943600E-016, -1.000000000000000000 ) ) ;
#276 = PERSON ( 'UNSPECIFIED', 'UNSPECIFIED', 'UNSPECIFIED', ('UNSPECIFIED'), ('UNSPECIFIED'), ('UNSPECIFIED') ) ;
#277 = ORIENTED_EDGE ( 'NONE', *, *, #127, .T. ) ;
#278 = CC_DESIGN_APPROVAL ( #123, ( #80 ) ) ;
#279 = AXIS2_PLACEMENT_3D ( 'NONE', #94, #146, #259 ) ;
#280 = ADVANCED_BREP_SHAPE_REPRESENTATION ( '20125-E0W', ( #74, #279 ), #90 ) ;
#281 = CONICAL_SURFACE ( 'NONE', #238, 6.350000000000000500, 0.7853981633976261400 ) ;
#282 = EDGE_LOOP ( 'NONE', ( #12, #277, #87 ) ) ;
#283 = ADVANCED_FACE ( 'NONE', ( #158 ), #281, .T. ) ;
#284 = PRODUCT_DEFINITION_SHAPE ( 'NONE', 'NONE',  #191 ) ;
#285 = DIRECTION ( 'NONE',  ( 0.0000000000000000000, 1.000000000000000000, 3.143334444888613700E-016 ) ) ;
#286 = LOCAL_TIME ( 13, 21, 55.00000000000000000, #60 ) ;
#287 = CC_DESIGN_PERSON_AND_ORGANIZATION_ASSIGNMENT ( #83, #9, ( #80 ) ) ;
#288 = AXIS2_PLACEMENT_3D ( 'NONE', #33, #1, #27 ) ;
#289 = DIRECTION ( 'NONE',  ( 0.0000000000000000000, 0.0000000000000000000, 1.000000000000000000 ) ) ;
#290 = DATE_TIME_ROLE ( 'creation_date' ) ;
#291 = DIRECTION ( 'NONE',  ( -1.224646799147353200E-016, 1.000000000000000000, 0.0000000000000000000 ) ) ;
#292 = SECURITY_CLASSIFICATION ( '', '', #72 ) ;
#293 = ORIENTED_EDGE ( 'NONE', *, *, #256, .T. ) ;
#294 = CARTESIAN_POINT ( 'NONE',  ( 0.0000000000000000000, 5.020886050671748500E-016, -1.280000000000000000 ) ) ;
#295 = DIRECTION ( 'NONE',  ( -0.0000000000000000000, 3.061515884555943600E-016, -1.000000000000000000 ) ) ;
#296 = DATE_AND_TIME ( #24, #26 ) ;
#297 = DIRECTION ( 'NONE',  ( -0.0000000000000000000, 3.061515884555943600E-016, -1.000000000000000000 ) ) ;
#298 = EDGE_LOOP ( 'NONE', ( #116, #247, #213, #148 ) ) ;
#299 = EDGE_CURVE ( 'NONE', #48, #136, #44, .T. ) ;
#300 = DIRECTION ( 'NONE',  ( -0.0000000000000000000, 3.061515884555943600E-016, -1.000000000000000000 ) ) ;
#301 = COORDINATED_UNIVERSAL_TIME_OFFSET ( 5, 0, .BEHIND. ) ;
ENDSEC;
END-ISO-10303-21;
