ISO-10303-21;
HEADER;
FILE_DESCRIPTION (( 'STEP AP214' ),
    '1' );
FILE_NAME ('4805-E0W.STEP',
    '2009-12-21T17:14:55',
    ( ' ' ),
    ( ' ' ),
    'SwSTEP 2.0',
    'SolidWorks 2009',
    '' );
FILE_SCHEMA (( 'AUTOMOTIVE_DESIGN' ));
ENDSEC;

DATA;
#1 = SHAPE_DEFINITION_REPRESENTATION ( #7, #216 ) ;
#2 = PRODUCT ( '4805-E0W', '4805-E0W', '', ( #3 ) ) ;
#3 = PRODUCT_CONTEXT ( 'NONE', #13, 'mechanical' ) ;
#4 = APPLICATION_PROTOCOL_DEFINITION ( 'draft international standard', 'automotive_design', 1998, #13 ) ;
#5 = APPLICATION_PROTOCOL_DEFINITION ( 'draft international standard', 'automotive_design', 1998, #6 ) ;
#6 = APPLICATION_CONTEXT ( 'automotive_design' ) ;
#7 = PRODUCT_DEFINITION_SHAPE ( 'NONE', 'NONE',  #8 ) ;
#8 = PRODUCT_DEFINITION ( 'UNKNOWN', '', #16, #9 ) ;
#9 = PRODUCT_DEFINITION_CONTEXT ( 'detailed design', #6, 'design' ) ;
#10 = DIRECTION ( 'NONE',  ( 0.0000000000000000000, 0.0000000000000000000, 1.000000000000000000 ) ) ;
#11 = AXIS2_PLACEMENT_3D ( 'NONE', #14, #10, #12 ) ;
#12 = DIRECTION ( 'NONE',  ( 1.000000000000000000, 0.0000000000000000000, 0.0000000000000000000 ) ) ;
#13 = APPLICATION_CONTEXT ( 'automotive_design' ) ;
#14 = CARTESIAN_POINT ( 'NONE',  ( 0.0000000000000000000, 0.0000000000000000000, 0.0000000000000000000 ) ) ;
#15 = PRODUCT_RELATED_PRODUCT_CATEGORY ( 'part', '', ( #2 ) ) ;
#16 = PRODUCT_DEFINITION_FORMATION_WITH_SPECIFIED_SOURCE ( 'ANY', '', #2, .NOT_KNOWN. ) ;
#17 =( NAMED_UNIT ( * ) PLANE_ANGLE_UNIT ( ) SI_UNIT ( $, .RADIAN. ) );
#18 = PRESENTATION_LAYER_ASSIGNMENT (  '', '', ( #19 ) ) ;
#19 = STYLED_ITEM ( 'NONE', ( #26 ), #216 ) ;
#20 = MECHANICAL_DESIGN_GEOMETRIC_PRESENTATION_REPRESENTATION (  '', ( #19 ), #260 ) ;
#21 = DIRECTION ( 'NONE',  ( -0.0000000000000000000, -0.0000000000000000000, 1.000000000000000000 ) ) ;
#22 =( LENGTH_UNIT ( ) NAMED_UNIT ( * ) SI_UNIT ( .MILLI., .METRE. ) );
#23 =( NAMED_UNIT ( * ) SI_UNIT ( $, .STERADIAN. ) SOLID_ANGLE_UNIT ( ) );
#24 =( NAMED_UNIT ( * ) SI_UNIT ( $, .STERADIAN. ) SOLID_ANGLE_UNIT ( ) );
#25 =( LENGTH_UNIT ( ) NAMED_UNIT ( * ) SI_UNIT ( .MILLI., .METRE. ) );
#26 = PRESENTATION_STYLE_ASSIGNMENT (( #245 ) ) ;
#27 =( NAMED_UNIT ( * ) PLANE_ANGLE_UNIT ( ) SI_UNIT ( $, .RADIAN. ) );
#28 =( NAMED_UNIT ( * ) SI_UNIT ( $, .STERADIAN. ) SOLID_ANGLE_UNIT ( ) );
#29 =( NAMED_UNIT ( * ) PLANE_ANGLE_UNIT ( ) SI_UNIT ( $, .RADIAN. ) );
#30 = DIRECTION ( 'NONE',  ( 1.000000000000000000, 0.0000000000000000000, 0.0000000000000000000 ) ) ;
#31 =( NAMED_UNIT ( * ) PLANE_ANGLE_UNIT ( ) SI_UNIT ( $, .RADIAN. ) );
#32 =( LENGTH_UNIT ( ) NAMED_UNIT ( * ) SI_UNIT ( .MILLI., .METRE. ) );
#33 = UNCERTAINTY_MEASURE_WITH_UNIT (LENGTH_MEASURE( 1.000000000000000100E-005 ), #25, 'distance_accuracy_value', 'NONE');
#34 =( NAMED_UNIT ( * ) SI_UNIT ( $, .STERADIAN. ) SOLID_ANGLE_UNIT ( ) );
#35 =( GEOMETRIC_REPRESENTATION_CONTEXT ( 3 ) GLOBAL_UNCERTAINTY_ASSIGNED_CONTEXT ( ( #33 ) ) GLOBAL_UNIT_ASSIGNED_CONTEXT ( ( #25, #27, #24 ) ) REPRESENTATION_CONTEXT ( 'NONE', 'WORKASPACE' ) );
#36 =( GEOMETRIC_REPRESENTATION_CONTEXT ( 3 ) GLOBAL_UNCERTAINTY_ASSIGNED_CONTEXT ( ( #53 ) ) GLOBAL_UNIT_ASSIGNED_CONTEXT ( ( #259, #17, #28 ) ) REPRESENTATION_CONTEXT ( 'NONE', 'WORKASPACE' ) );
#37 = ORIENTED_EDGE ( 'NONE', *, *, #46, .F. ) ;
#38 = CLOSED_SHELL ( 'NONE', ( #66, #79, #54, #39, #96 ) ) ;
#39 = ADVANCED_FACE ( 'NONE', ( #71 ), #111, .F. ) ;
#40 = ORIENTED_EDGE ( 'NONE', *, *, #81, .F. ) ;
#41 = VERTEX_POINT ( 'NONE', #152 ) ;
#42 = EDGE_LOOP ( 'NONE', ( #82, #77, #40, #62, #64 ) ) ;
#43 = EDGE_CURVE ( 'NONE', #55, #72, #143, .T. ) ;
#44 = ORIENTED_EDGE ( 'NONE', *, *, #93, .F. ) ;
#45 = ORIENTED_EDGE ( 'NONE', *, *, #95, .T. ) ;
#46 = EDGE_CURVE ( 'NONE', #52, #72, #129, .T. ) ;
#47 = EDGE_LOOP ( 'NONE', ( #83, #68, #94, #37, #67 ) ) ;
#48 = EDGE_LOOP ( 'NONE', ( #44, #57, #92, #45 ) ) ;
#49 = ORIENTED_EDGE ( 'NONE', *, *, #93, .T. ) ;
#50 = VERTEX_POINT ( 'NONE', #118 ) ;
#51 = ORIENTED_EDGE ( 'NONE', *, *, #46, .T. ) ;
#52 = VERTEX_POINT ( 'NONE', #109 ) ;
#53 = UNCERTAINTY_MEASURE_WITH_UNIT (LENGTH_MEASURE( 1.000000000000000100E-005 ), #259, 'distance_accuracy_value', 'NONE');
#54 = ADVANCED_FACE ( 'NONE', ( #102 ), #155, .F. ) ;
#55 = VERTEX_POINT ( 'NONE', #156 ) ;
#56 = VERTEX_POINT ( 'NONE', #147 ) ;
#57 = ORIENTED_EDGE ( 'NONE', *, *, #58, .T. ) ;
#58 = EDGE_CURVE ( 'NONE', #50, #56, #142, .T. ) ;
#59 = EDGE_LOOP ( 'NONE', ( #60, #97 ) ) ;
#60 = ORIENTED_EDGE ( 'NONE', *, *, #76, .F. ) ;
#61 = ORIENTED_EDGE ( 'NONE', *, *, #63, .T. ) ;
#62 = ORIENTED_EDGE ( 'NONE', *, *, #63, .F. ) ;
#63 = EDGE_CURVE ( 'NONE', #72, #56, #127, .T. ) ;
#64 = ORIENTED_EDGE ( 'NONE', *, *, #43, .F. ) ;
#65 = MANIFOLD_SOLID_BREP ( 'NONE', #38 ) ;
#66 = ADVANCED_FACE ( 'NONE', ( #168 ), #213, .T. ) ;
#67 = ORIENTED_EDGE ( 'NONE', *, *, #95, .F. ) ;
#68 = ORIENTED_EDGE ( 'NONE', *, *, #75, .T. ) ;
#69 = FILL_AREA_STYLE_COLOUR ( '', #70 ) ;
#70 = COLOUR_RGB ( '',0.9568627450980391500, 0.9490196078431372100, 0.9607843137254902200 ) ;
#71 = FACE_OUTER_BOUND ( 'NONE', #59, .T. ) ;
#72 = VERTEX_POINT ( 'NONE', #203 ) ;
#73 = VERTEX_POINT ( 'NONE', #167 ) ;
#74 = EDGE_CURVE ( 'NONE', #73, #41, #191, .T. ) ;
#75 = EDGE_CURVE ( 'NONE', #73, #55, #166, .T. ) ;
#76 = EDGE_CURVE ( 'NONE', #55, #73, #183, .T. ) ;
#77 = ORIENTED_EDGE ( 'NONE', *, *, #74, .T. ) ;
#78 = EDGE_LOOP ( 'NONE', ( #80, #49, #51, #61 ) ) ;
#79 = ADVANCED_FACE ( 'NONE', ( #184 ), #175, .F. ) ;
#80 = ORIENTED_EDGE ( 'NONE', *, *, #58, .F. ) ;
#81 = EDGE_CURVE ( 'NONE', #56, #41, #188, .T. ) ;
#82 = ORIENTED_EDGE ( 'NONE', *, *, #76, .T. ) ;
#83 = ORIENTED_EDGE ( 'NONE', *, *, #74, .F. ) ;
#84 = MECHANICAL_DESIGN_GEOMETRIC_PRESENTATION_REPRESENTATION (  '', ( #86 ), #35 ) ;
#85 = PRESENTATION_LAYER_ASSIGNMENT (  '', '', ( #86 ) ) ;
#86 = STYLED_ITEM ( 'NONE', ( #87 ), #39 ) ;
#87 = PRESENTATION_STYLE_ASSIGNMENT (( #88 ) ) ;
#88 = SURFACE_STYLE_USAGE ( .BOTH. , #89 ) ;
#89 = SURFACE_SIDE_STYLE ('',( #90 ) ) ;
#90 = SURFACE_STYLE_FILL_AREA ( #91 ) ;
#91 = FILL_AREA_STYLE ('',( #69 ) ) ;
#92 = ORIENTED_EDGE ( 'NONE', *, *, #81, .T. ) ;
#93 = EDGE_CURVE ( 'NONE', #50, #52, #237, .T. ) ;
#94 = ORIENTED_EDGE ( 'NONE', *, *, #43, .T. ) ;
#95 = EDGE_CURVE ( 'NONE', #41, #52, #223, .T. ) ;
#96 = ADVANCED_FACE ( 'NONE', ( #256 ), #240, .T. ) ;
#97 = ORIENTED_EDGE ( 'NONE', *, *, #75, .F. ) ;
#98 = AXIS2_PLACEMENT_3D ( 'NONE', #113, #105, #140 ) ;
#99 = VECTOR ( 'NONE', #145, 1000.000000000000000 ) ;
#100 = SURFACE_STYLE_USAGE ( .BOTH. , #103 ) ;
#101 =( NAMED_UNIT ( * ) SI_UNIT ( $, .STERADIAN. ) SOLID_ANGLE_UNIT ( ) );
#102 = FACE_OUTER_BOUND ( 'NONE', #48, .T. ) ;
#103 = SURFACE_SIDE_STYLE ('',( #107 ) ) ;
#104 = PRESENTATION_LAYER_ASSIGNMENT (  '', '', ( #157 ) ) ;
#105 = DIRECTION ( 'NONE',  ( -0.0000000000000000000, -0.0000000000000000000, 1.000000000000000000 ) ) ;
#106 = DIRECTION ( 'NONE',  ( 1.000000000000000000, 0.0000000000000000000, 0.0000000000000000000 ) ) ;
#107 = SURFACE_STYLE_FILL_AREA ( #117 ) ;
#108 = CARTESIAN_POINT ( 'NONE',  ( 0.0000000000000000000, 6.429395695523603200E-016, -2.824831916252802600 ) ) ;
#109 = CARTESIAN_POINT ( 'NONE',  ( -1.555250069354418100E-015, -12.69999999999999200, 2.824831916252802600 ) ) ;
#110 = CARTESIAN_POINT ( 'NONE',  ( 12.69999999999999900, 0.0000000000000000000, 7.942321354176521600 ) ) ;
#111 = PLANE ( 'NONE',  #121 ) ;
#112 = AXIS2_PLACEMENT_3D ( 'NONE', #150, #149, #148 ) ;
#113 = CARTESIAN_POINT ( 'NONE',  ( 0.0000000000000000000, 0.0000000000000000000, 2.824831916252802600 ) ) ;
#114 = DIRECTION ( 'NONE',  ( 0.0000000000000000000, 0.0000000000000000000, -1.000000000000000000 ) ) ;
#115 = DIRECTION ( 'NONE',  ( 1.000000000000000000, 0.0000000000000000000, 0.0000000000000000000 ) ) ;
#116 = AXIS2_PLACEMENT_3D ( 'NONE', #141, #115, #114 ) ;
#117 = FILL_AREA_STYLE ('',( #139 ) ) ;
#118 = CARTESIAN_POINT ( 'NONE',  ( 0.0000000000000000000, 2.362877959700277300E-015, 0.6751680837472005000 ) ) ;
#119 = COLOUR_RGB ( '',0.9568627450980391500, 0.9490196078431372100, 0.9607843137254902200 ) ;
#120 = MECHANICAL_DESIGN_GEOMETRIC_PRESENTATION_REPRESENTATION (  '', ( #157 ), #153 ) ;
#121 = AXIS2_PLACEMENT_3D ( 'NONE', #108, #122, #106 ) ;
#122 = DIRECTION ( 'NONE',  ( 0.0000000000000000000, -0.0000000000000000000, 1.000000000000000000 ) ) ;
#123 = DIRECTION ( 'NONE',  ( 1.000000000000000000, 0.0000000000000000000, 0.0000000000000000000 ) ) ;
#124 = DIRECTION ( 'NONE',  ( -0.0000000000000000000, -0.0000000000000000000, 1.000000000000000000 ) ) ;
#125 = CARTESIAN_POINT ( 'NONE',  ( 0.0000000000000000000, 0.0000000000000000000, 2.824831916252802600 ) ) ;
#126 = AXIS2_PLACEMENT_3D ( 'NONE', #125, #124, #123 ) ;
#127 = CIRCLE ( 'NONE', #126, 12.69999999999999900 ) ;
#128 = COLOUR_RGB ( '',0.7960784313725489700, 0.8235294117647058400, 0.9372549019607843100 ) ;
#129 = CIRCLE ( 'NONE', #98, 12.69999999999999900 ) ;
#130 = MECHANICAL_DESIGN_GEOMETRIC_PRESENTATION_REPRESENTATION (  '', ( #132 ), #204 ) ;
#131 = PRESENTATION_LAYER_ASSIGNMENT (  '', '', ( #132 ) ) ;
#132 = STYLED_ITEM ( 'NONE', ( #133 ), #65 ) ;
#133 = PRESENTATION_STYLE_ASSIGNMENT (( #134 ) ) ;
#134 = SURFACE_STYLE_USAGE ( .BOTH. , #135 ) ;
#135 = SURFACE_SIDE_STYLE ('',( #136 ) ) ;
#136 = SURFACE_STYLE_FILL_AREA ( #137 ) ;
#137 = FILL_AREA_STYLE ('',( #138 ) ) ;
#138 = FILL_AREA_STYLE_COLOUR ( '', #128 ) ;
#139 = FILL_AREA_STYLE_COLOUR ( '', #119 ) ;
#140 = DIRECTION ( 'NONE',  ( 1.000000000000000000, 0.0000000000000000000, 0.0000000000000000000 ) ) ;
#141 = CARTESIAN_POINT ( 'NONE',  ( 0.0000000000000000000, 0.0000000000000000000, 39.26516808374720600 ) ) ;
#142 = CIRCLE ( 'NONE', #116, 38.59000000000000300 ) ;
#143 = LINE ( 'NONE', #110, #99 ) ;
#144 =( LENGTH_UNIT ( ) NAMED_UNIT ( * ) SI_UNIT ( .MILLI., .METRE. ) );
#145 = DIRECTION ( 'NONE',  ( -0.0000000000000000000, -0.0000000000000000000, 1.000000000000000000 ) ) ;
#146 =( NAMED_UNIT ( * ) PLANE_ANGLE_UNIT ( ) SI_UNIT ( $, .RADIAN. ) );
#147 = CARTESIAN_POINT ( 'NONE',  ( 0.0000000000000000000, 12.69999999999999200, 2.824831916252802600 ) ) ;
#148 = DIRECTION ( 'NONE',  ( 0.0000000000000000000, 1.000000000000000000, 0.0000000000000000000 ) ) ;
#149 = DIRECTION ( 'NONE',  ( -1.000000000000000000, 0.0000000000000000000, 0.0000000000000000000 ) ) ;
#150 = CARTESIAN_POINT ( 'NONE',  ( 0.0000000000000000000, 0.0000000000000000000, 39.26516808374720600 ) ) ;
#151 = UNCERTAINTY_MEASURE_WITH_UNIT (LENGTH_MEASURE( 1.000000000000000100E-005 ), #144, 'distance_accuracy_value', 'NONE');
#152 = CARTESIAN_POINT ( 'NONE',  ( -12.69999999999999900, 1.555250069354419100E-015, 2.824831916252802600 ) ) ;
#153 =( GEOMETRIC_REPRESENTATION_CONTEXT ( 3 ) GLOBAL_UNCERTAINTY_ASSIGNED_CONTEXT ( ( #151 ) ) GLOBAL_UNIT_ASSIGNED_CONTEXT ( ( #144, #146, #101 ) ) REPRESENTATION_CONTEXT ( 'NONE', 'WORKASPACE' ) );
#154 = PRESENTATION_STYLE_ASSIGNMENT (( #100 ) ) ;
#155 = SPHERICAL_SURFACE ( 'NONE', #112, 38.59000000000000300 ) ;
#156 = CARTESIAN_POINT ( 'NONE',  ( 12.69999999999999900, 0.0000000000000000000, -2.824831916252802600 ) ) ;
#157 = STYLED_ITEM ( 'NONE', ( #154 ), #54 ) ;
#158 = UNCERTAINTY_MEASURE_WITH_UNIT (LENGTH_MEASURE( 1.000000000000000100E-005 ), #205, 'distance_accuracy_value', 'NONE');
#159 =( NAMED_UNIT ( * ) SI_UNIT ( $, .STERADIAN. ) SOLID_ANGLE_UNIT ( ) );
#160 = DIRECTION ( 'NONE',  ( 1.000000000000000000, 0.0000000000000000000, 0.0000000000000000000 ) ) ;
#161 = DIRECTION ( 'NONE',  ( -0.0000000000000000000, -0.0000000000000000000, 1.000000000000000000 ) ) ;
#162 = CARTESIAN_POINT ( 'NONE',  ( 0.0000000000000000000, 0.0000000000000000000, -2.824831916252802600 ) ) ;
#163 = CARTESIAN_POINT ( 'NONE',  ( 0.0000000000000000000, 0.0000000000000000000, -2.824831916252802600 ) ) ;
#164 = FILL_AREA_STYLE_COLOUR ( '', #172 ) ;
#165 = AXIS2_PLACEMENT_3D ( 'NONE', #162, #161, #160 ) ;
#166 = CIRCLE ( 'NONE', #165, 12.69999999999999900 ) ;
#167 = CARTESIAN_POINT ( 'NONE',  ( -12.69999999999999900, 1.555250069354419100E-015, -2.824831916252802600 ) ) ;
#168 = FACE_OUTER_BOUND ( 'NONE', #42, .T. ) ;
#169 =( NAMED_UNIT ( * ) SI_UNIT ( $, .STERADIAN. ) SOLID_ANGLE_UNIT ( ) );
#170 = SURFACE_STYLE_USAGE ( .BOTH. , #193 ) ;
#171 =( GEOMETRIC_REPRESENTATION_CONTEXT ( 3 ) GLOBAL_UNCERTAINTY_ASSIGNED_CONTEXT ( ( #200 ) ) GLOBAL_UNIT_ASSIGNED_CONTEXT ( ( #201, #212, #169 ) ) REPRESENTATION_CONTEXT ( 'NONE', 'WORKASPACE' ) );
#172 = COLOUR_RGB ( '',0.9568627450980391500, 0.9490196078431372100, 0.9607843137254902200 ) ;
#173 = UNCERTAINTY_MEASURE_WITH_UNIT (LENGTH_MEASURE( 1.000000000000000100E-005 ), #22, 'distance_accuracy_value', 'NONE');
#174 = PRESENTATION_STYLE_ASSIGNMENT (( #170 ) ) ;
#175 = SPHERICAL_SURFACE ( 'NONE', #187, 38.59000000000000300 ) ;
#176 =( GEOMETRIC_REPRESENTATION_CONTEXT ( 3 ) GLOBAL_UNCERTAINTY_ASSIGNED_CONTEXT ( ( #158 ) ) GLOBAL_UNIT_ASSIGNED_CONTEXT ( ( #205, #190, #159 ) ) REPRESENTATION_CONTEXT ( 'NONE', 'WORKASPACE' ) );
#177 = PRESENTATION_STYLE_ASSIGNMENT (( #178 ) ) ;
#178 = SURFACE_STYLE_USAGE ( .BOTH. , #179 ) ;
#179 = SURFACE_SIDE_STYLE ('',( #180 ) ) ;
#180 = SURFACE_STYLE_FILL_AREA ( #181 ) ;
#181 = FILL_AREA_STYLE ('',( #218 ) ) ;
#182 = AXIS2_PLACEMENT_3D ( 'NONE', #163, #221, #220 ) ;
#183 = CIRCLE ( 'NONE', #182, 12.69999999999999900 ) ;
#184 = FACE_OUTER_BOUND ( 'NONE', #78, .T. ) ;
#185 = DIRECTION ( 'NONE',  ( -1.000000000000000000, 0.0000000000000000000, 0.0000000000000000000 ) ) ;
#186 = CARTESIAN_POINT ( 'NONE',  ( 0.0000000000000000000, 0.0000000000000000000, 39.26516808374720600 ) ) ;
#187 = AXIS2_PLACEMENT_3D ( 'NONE', #186, #185, #217 ) ;
#188 = CIRCLE ( 'NONE', #215, 12.69999999999999900 ) ;
#189 = FILL_AREA_STYLE ('',( #164 ) ) ;
#190 =( NAMED_UNIT ( * ) PLANE_ANGLE_UNIT ( ) SI_UNIT ( $, .RADIAN. ) );
#191 = LINE ( 'NONE', #199, #198 ) ;
#192 = MECHANICAL_DESIGN_GEOMETRIC_PRESENTATION_REPRESENTATION (  '', ( #209 ), #171 ) ;
#193 = SURFACE_SIDE_STYLE ('',( #210 ) ) ;
#194 = DIRECTION ( 'NONE',  ( 1.000000000000000000, 0.0000000000000000000, 0.0000000000000000000 ) ) ;
#195 = DIRECTION ( 'NONE',  ( -0.0000000000000000000, -0.0000000000000000000, 1.000000000000000000 ) ) ;
#196 = AXIS2_PLACEMENT_3D ( 'NONE', #202, #195, #194 ) ;
#197 = DIRECTION ( 'NONE',  ( -0.0000000000000000000, -0.0000000000000000000, 1.000000000000000000 ) ) ;
#198 = VECTOR ( 'NONE', #197, 1000.000000000000000 ) ;
#199 = CARTESIAN_POINT ( 'NONE',  ( -12.69999999999999900, 1.555250069354419100E-015, 7.942321354176521600 ) ) ;
#200 = UNCERTAINTY_MEASURE_WITH_UNIT (LENGTH_MEASURE( 1.000000000000000100E-005 ), #201, 'distance_accuracy_value', 'NONE');
#201 =( LENGTH_UNIT ( ) NAMED_UNIT ( * ) SI_UNIT ( .MILLI., .METRE. ) );
#202 = CARTESIAN_POINT ( 'NONE',  ( 0.0000000000000000000, 0.0000000000000000000, 7.942321354176521600 ) ) ;
#203 = CARTESIAN_POINT ( 'NONE',  ( 12.69999999999999900, 0.0000000000000000000, 2.824831916252802600 ) ) ;
#204 =( GEOMETRIC_REPRESENTATION_CONTEXT ( 3 ) GLOBAL_UNCERTAINTY_ASSIGNED_CONTEXT ( ( #173 ) ) GLOBAL_UNIT_ASSIGNED_CONTEXT ( ( #22, #29, #23 ) ) REPRESENTATION_CONTEXT ( 'NONE', 'WORKASPACE' ) );
#205 =( LENGTH_UNIT ( ) NAMED_UNIT ( * ) SI_UNIT ( .MILLI., .METRE. ) );
#206 = MECHANICAL_DESIGN_GEOMETRIC_PRESENTATION_REPRESENTATION (  '', ( #208 ), #176 ) ;
#207 = PRESENTATION_LAYER_ASSIGNMENT (  '', '', ( #208 ) ) ;
#208 = STYLED_ITEM ( 'NONE', ( #177 ), #79 ) ;
#209 = STYLED_ITEM ( 'NONE', ( #174 ), #66 ) ;
#210 = SURFACE_STYLE_FILL_AREA ( #189 ) ;
#211 = PRESENTATION_LAYER_ASSIGNMENT (  '', '', ( #209 ) ) ;
#212 =( NAMED_UNIT ( * ) PLANE_ANGLE_UNIT ( ) SI_UNIT ( $, .RADIAN. ) );
#213 = CYLINDRICAL_SURFACE ( 'NONE', #196, 12.69999999999999900 ) ;
#214 = CARTESIAN_POINT ( 'NONE',  ( 0.0000000000000000000, 0.0000000000000000000, 2.824831916252802600 ) ) ;
#215 = AXIS2_PLACEMENT_3D ( 'NONE', #214, #21, #30 ) ;
#216 = ADVANCED_BREP_SHAPE_REPRESENTATION ( '4805-E0W', ( #65, #11 ), #36 ) ;
#217 = DIRECTION ( 'NONE',  ( 0.0000000000000000000, 1.000000000000000000, 0.0000000000000000000 ) ) ;
#218 = FILL_AREA_STYLE_COLOUR ( '', #219 ) ;
#219 = COLOUR_RGB ( '',0.9568627450980391500, 0.9490196078431372100, 0.9607843137254902200 ) ;
#220 = DIRECTION ( 'NONE',  ( 1.000000000000000000, 0.0000000000000000000, 0.0000000000000000000 ) ) ;
#221 = DIRECTION ( 'NONE',  ( -0.0000000000000000000, -0.0000000000000000000, 1.000000000000000000 ) ) ;
#222 = FILL_AREA_STYLE_COLOUR ( '', #243 ) ;
#223 = CIRCLE ( 'NONE', #232, 12.69999999999999900 ) ;
#224 =( LENGTH_UNIT ( ) NAMED_UNIT ( * ) SI_UNIT ( .MILLI., .METRE. ) );
#225 = STYLED_ITEM ( 'NONE', ( #254 ), #96 ) ;
#226 = CARTESIAN_POINT ( 'NONE',  ( 0.0000000000000000000, 0.0000000000000000000, 7.942321354176521600 ) ) ;
#227 = AXIS2_PLACEMENT_3D ( 'NONE', #226, #249, #248 ) ;
#228 = SURFACE_SIDE_STYLE ('',( #253 ) ) ;
#229 = SURFACE_STYLE_USAGE ( .BOTH. , #228 ) ;
#230 = DIRECTION ( 'NONE',  ( -1.000000000000000000, 1.224606353822377300E-016, 0.0000000000000000000 ) ) ;
#231 = DIRECTION ( 'NONE',  ( -1.224606353822377300E-016, -1.000000000000000000, 0.0000000000000000000 ) ) ;
#232 = AXIS2_PLACEMENT_3D ( 'NONE', #255, #235, #257 ) ;
#233 = FILL_AREA_STYLE ('',( #222 ) ) ;
#234 = MECHANICAL_DESIGN_GEOMETRIC_PRESENTATION_REPRESENTATION (  '', ( #225 ), #242 ) ;
#235 = DIRECTION ( 'NONE',  ( -0.0000000000000000000, -0.0000000000000000000, 1.000000000000000000 ) ) ;
#236 =( NAMED_UNIT ( * ) SI_UNIT ( $, .STERADIAN. ) SOLID_ANGLE_UNIT ( ) );
#237 = CIRCLE ( 'NONE', #239, 38.59000000000000300 ) ;
#238 = UNCERTAINTY_MEASURE_WITH_UNIT (LENGTH_MEASURE( 1.000000000000000100E-005 ), #224, 'distance_accuracy_value', 'NONE');
#239 = AXIS2_PLACEMENT_3D ( 'NONE', #244, #230, #231 ) ;
#240 = CYLINDRICAL_SURFACE ( 'NONE', #227, 12.69999999999999900 ) ;
#241 =( NAMED_UNIT ( * ) PLANE_ANGLE_UNIT ( ) SI_UNIT ( $, .RADIAN. ) );
#242 =( GEOMETRIC_REPRESENTATION_CONTEXT ( 3 ) GLOBAL_UNCERTAINTY_ASSIGNED_CONTEXT ( ( #238 ) ) GLOBAL_UNIT_ASSIGNED_CONTEXT ( ( #224, #241, #236 ) ) REPRESENTATION_CONTEXT ( 'NONE', 'WORKASPACE' ) );
#243 = COLOUR_RGB ( '',0.9568627450980391500, 0.9490196078431372100, 0.9607843137254902200 ) ;
#244 = CARTESIAN_POINT ( 'NONE',  ( 0.0000000000000000000, 0.0000000000000000000, 39.26516808374720600 ) ) ;
#245 = SURFACE_STYLE_USAGE ( .BOTH. , #246 ) ;
#246 = SURFACE_SIDE_STYLE ('',( #247 ) ) ;
#247 = SURFACE_STYLE_FILL_AREA ( #250 ) ;
#248 = DIRECTION ( 'NONE',  ( 1.000000000000000000, 0.0000000000000000000, 0.0000000000000000000 ) ) ;
#249 = DIRECTION ( 'NONE',  ( -0.0000000000000000000, -0.0000000000000000000, 1.000000000000000000 ) ) ;
#250 = FILL_AREA_STYLE ('',( #251 ) ) ;
#251 = FILL_AREA_STYLE_COLOUR ( '', #252 ) ;
#252 = COLOUR_RGB ( '',0.7960784313725489700, 0.8235294117647058400, 0.9372549019607843100 ) ;
#253 = SURFACE_STYLE_FILL_AREA ( #233 ) ;
#254 = PRESENTATION_STYLE_ASSIGNMENT (( #229 ) ) ;
#255 = CARTESIAN_POINT ( 'NONE',  ( 0.0000000000000000000, 0.0000000000000000000, 2.824831916252802600 ) ) ;
#256 = FACE_OUTER_BOUND ( 'NONE', #47, .T. ) ;
#257 = DIRECTION ( 'NONE',  ( 1.000000000000000000, 0.0000000000000000000, 0.0000000000000000000 ) ) ;
#258 = PRESENTATION_LAYER_ASSIGNMENT (  '', '', ( #225 ) ) ;
#259 =( LENGTH_UNIT ( ) NAMED_UNIT ( * ) SI_UNIT ( .MILLI., .METRE. ) );
#260 =( GEOMETRIC_REPRESENTATION_CONTEXT ( 3 ) GLOBAL_UNCERTAINTY_ASSIGNED_CONTEXT ( ( #261 ) ) GLOBAL_UNIT_ASSIGNED_CONTEXT ( ( #32, #31, #34 ) ) REPRESENTATION_CONTEXT ( 'NONE', 'WORKASPACE' ) );
#261 = UNCERTAINTY_MEASURE_WITH_UNIT (LENGTH_MEASURE( 1.000000000000000100E-005 ), #32, 'distance_accuracy_value', 'NONE');
ENDSEC;
END-ISO-10303-21;
