ISO-10303-21;
HEADER;
FILE_DESCRIPTION (( 'STEP AP203' ),
    '1' );
FILE_NAME ('Web Model 11876_11879.step',
    '2019-01-02T18:25:35',
    ( '' ),
    ( '' ),
    'SwSTEP 2.0',
    'SolidWorks 2016',
    '' );
FILE_SCHEMA (( 'CONFIG_CONTROL_DESIGN' ));
ENDSEC;

DATA;
#1 = LOCAL_TIME ( 13, 25, 35.00000000000000000, #162 ) ;
#2 = ORIENTED_EDGE ( 'NONE', *, *, #93, .T. ) ;
#3 = PERSON_AND_ORGANIZATION ( #36, #56 ) ;
#4 = ORIENTED_EDGE ( 'NONE', *, *, #198, .F. ) ;
#5 = LINE ( 'NONE', #202, #193 ) ;
#6 = ORIENTED_EDGE ( 'NONE', *, *, #125, .F. ) ;
#7 = DIRECTION ( 'NONE',  ( -0.7071067811865107100, 8.659560562355384000E-017, -0.7071067811865843200 ) ) ;
#8 = AXIS2_PLACEMENT_3D ( 'NONE', #158, #224, #244 ) ;
#9 = DIRECTION ( 'NONE',  ( 0.0000000000000000000, 0.0000000000000000000, -1.000000000000000000 ) ) ;
#10 = DIRECTION ( 'NONE',  ( 0.0000000000000000000, 0.0000000000000000000, -1.000000000000000000 ) ) ;
#11 = CONICAL_SURFACE ( 'NONE', #89, 12.50000000000000000, 0.7853981633974309600 ) ;
#12 = MECHANICAL_CONTEXT ( 'NONE', #118, 'mechanical' ) ;
#13 = APPROVAL_ROLE ( '' ) ;
#14 = CARTESIAN_POINT ( 'NONE',  ( 0.4500000000000072300, 0.0000000000000000000, 0.0000000000000000000 ) ) ;
#15 = APPROVAL_STATUS ( 'not_yet_approved' ) ;
#16 = CIRCLE ( 'NONE', #55, 12.50000000000000000 ) ;
#17 = PERSON_AND_ORGANIZATION ( #36, #56 ) ;
#18 = ORIENTED_EDGE ( 'NONE', *, *, #58, .T. ) ;
#19 = CC_DESIGN_PERSON_AND_ORGANIZATION_ASSIGNMENT ( #84, #205, ( #211 ) ) ;
#20 = LOCAL_TIME ( 13, 25, 35.00000000000000000, #179 ) ;
#21 = LINE ( 'NONE', #132, #40 ) ;
#22 = FACE_OUTER_BOUND ( 'NONE', #275, .T. ) ;
#23 = ORIENTED_EDGE ( 'NONE', *, *, #260, .F. ) ;
#24 = CARTESIAN_POINT ( 'NONE',  ( -0.4500000000000002900, 0.0000000000000000000, 0.0000000000000000000 ) ) ;
#25 = PRODUCT_DEFINITION_SHAPE ( 'NONE', 'NONE',  #78 ) ;
#26 = APPROVAL_PERSON_ORGANIZATION ( #17, #173, #13 ) ;
#27 = FACE_OUTER_BOUND ( 'NONE', #209, .T. ) ;
#28 = DIRECTION ( 'NONE',  ( -1.000000000000000000, -0.0000000000000000000, -0.0000000000000000000 ) ) ;
#29 = CARTESIAN_POINT ( 'NONE',  ( 0.5000000000000000000, 0.0000000000000000000, 0.0000000000000000000 ) ) ;
#30 = DIRECTION ( 'NONE',  ( 1.000000000000000000, 0.0000000000000000000, 0.0000000000000000000 ) ) ;
#31 = ORIENTED_EDGE ( 'NONE', *, *, #171, .F. ) ;
#32 = DIRECTION ( 'NONE',  ( -1.000000000000000000, -0.0000000000000000000, -0.0000000000000000000 ) ) ;
#33 = DATE_AND_TIME ( #208, #1 ) ;
#34 = DIRECTION ( 'NONE',  ( 0.0000000000000000000, 0.0000000000000000000, 1.000000000000000000 ) ) ;
#35 = ADVANCED_FACE ( 'NONE', ( #49 ), #174, .F. ) ;
#36 = PERSON ( 'UNSPECIFIED', 'UNSPECIFIED', 'UNSPECIFIED', ('UNSPECIFIED'), ('UNSPECIFIED'), ('UNSPECIFIED') ) ;
#37 = CLOSED_SHELL ( 'NONE', ( #75, #121, #252, #268, #53, #35, #210, #142 ) ) ;
#38 =( GEOMETRIC_REPRESENTATION_CONTEXT ( 3 ) GLOBAL_UNCERTAINTY_ASSIGNED_CONTEXT ( ( #143 ) ) GLOBAL_UNIT_ASSIGNED_CONTEXT ( ( #206, #186, #54 ) ) REPRESENTATION_CONTEXT ( 'NONE', 'WORKASPACE' ) );
#39 = PERSON_AND_ORGANIZATION ( #36, #56 ) ;
#40 = VECTOR ( 'NONE', #266, 1000.000000000000000 ) ;
#41 = DIRECTION ( 'NONE',  ( 1.000000000000000000, 0.0000000000000000000, 0.0000000000000000000 ) ) ;
#42 = EDGE_CURVE ( 'NONE', #65, #140, #168, .T. ) ;
#43 = CARTESIAN_POINT ( 'NONE',  ( -0.5000000000000000000, 0.0000000000000000000, -12.45000000000000300 ) ) ;
#44 = APPROVAL_DATE_TIME ( #105, #109 ) ;
#45 = VERTEX_POINT ( 'NONE', #43 ) ;
#46 = DIRECTION ( 'NONE',  ( -1.000000000000000000, 0.0000000000000000000, 0.0000000000000000000 ) ) ;
#47 = VECTOR ( 'NONE', #222, 1000.000000000000000 ) ;
#48 = DIRECTION ( 'NONE',  ( 0.0000000000000000000, 0.0000000000000000000, -1.000000000000000000 ) ) ;
#49 = FACE_OUTER_BOUND ( 'NONE', #100, .T. ) ;
#50 = DIRECTION ( 'NONE',  ( -1.000000000000000000, -0.0000000000000000000, -0.0000000000000000000 ) ) ;
#51 = CC_DESIGN_PERSON_AND_ORGANIZATION_ASSIGNMENT ( #151, #187, ( #167 ) ) ;
#52 = VECTOR ( 'NONE', #50, 1000.000000000000000 ) ;
#53 = ADVANCED_FACE ( 'NONE', ( #59 ), #86, .T. ) ;
#54 =( NAMED_UNIT ( * ) SI_UNIT ( $, .STERADIAN. ) SOLID_ANGLE_UNIT ( ) );
#55 = AXIS2_PLACEMENT_3D ( 'NONE', #200, #241, #94 ) ;
#56 = ORGANIZATION ( 'UNSPECIFIED', 'UNSPECIFIED', '' ) ;
#57 = AXIS2_PLACEMENT_3D ( 'NONE', #24, #64, #219 ) ;
#58 = EDGE_CURVE ( 'NONE', #140, #65, #253, .T. ) ;
#59 = FACE_OUTER_BOUND ( 'NONE', #246, .T. ) ;
#60 = ORIENTED_EDGE ( 'NONE', *, *, #260, .T. ) ;
#61 = ADVANCED_BREP_SHAPE_REPRESENTATION ( 'Web Model 11876_11879', ( #229, #247 ), #38 ) ;
#62 = LOCAL_TIME ( 13, 25, 35.00000000000000000, #79 ) ;
#63 = VECTOR ( 'NONE', #102, 1000.000000000000000 ) ;
#64 = DIRECTION ( 'NONE',  ( 1.000000000000000000, -0.0000000000000000000, -0.0000000000000000000 ) ) ;
#65 = VERTEX_POINT ( 'NONE', #243 ) ;
#66 = ORIENTED_EDGE ( 'NONE', *, *, #198, .T. ) ;
#67 = CARTESIAN_POINT ( 'NONE',  ( -0.4500000000000002900, 0.0000000000000000000, 0.0000000000000000000 ) ) ;
#68 = DIRECTION ( 'NONE',  ( -1.000000000000000000, 0.0000000000000000000, 0.0000000000000000000 ) ) ;
#69 = LINE ( 'NONE', #264, #227 ) ;
#70 = AXIS2_PLACEMENT_3D ( 'NONE', #14, #119, #116 ) ;
#71 = CARTESIAN_POINT ( 'NONE',  ( 0.5000000000000000000, 0.0000000000000000000, 0.0000000000000000000 ) ) ;
#72 = DIRECTION ( 'NONE',  ( 1.000000000000000000, -0.0000000000000000000, -0.0000000000000000000 ) ) ;
#73 = DIRECTION ( 'NONE',  ( 0.0000000000000000000, 0.0000000000000000000, -1.000000000000000000 ) ) ;
#74 = ORIENTED_EDGE ( 'NONE', *, *, #58, .F. ) ;
#75 = ADVANCED_FACE ( 'NONE', ( #180 ), #195, .T. ) ;
#76 = AXIS2_PLACEMENT_3D ( 'NONE', #71, #46, #199 ) ;
#77 = DIRECTION ( 'NONE',  ( 1.000000000000000000, 0.0000000000000000000, 0.0000000000000000000 ) ) ;
#78 = PRODUCT_DEFINITION ( 'UNKNOWN', '', #211, #150 ) ;
#79 = COORDINATED_UNIVERSAL_TIME_OFFSET ( 5, 0, .BEHIND. ) ;
#80 = LINE ( 'NONE', #115, #52 ) ;
#81 = APPLICATION_PROTOCOL_DEFINITION ( 'international standard', 'config_control_design', 1994, #118 ) ;
#82 = EDGE_LOOP ( 'NONE', ( #272, #262, #129, #4 ) ) ;
#83 = CC_DESIGN_DATE_AND_TIME_ASSIGNMENT ( #33, #183, ( #78 ) ) ;
#84 = PERSON_AND_ORGANIZATION ( #36, #56 ) ;
#85 = CC_DESIGN_APPROVAL ( #152, ( #211 ) ) ;
#86 = PLANE ( 'NONE',  #161 ) ;
#87 = EDGE_LOOP ( 'NONE', ( #184, #216, #254, #117 ) ) ;
#88 = ORIENTED_EDGE ( 'NONE', *, *, #154, .T. ) ;
#89 = AXIS2_PLACEMENT_3D ( 'NONE', #91, #135, #239 ) ;
#90 = APPROVAL_DATE_TIME ( #98, #152 ) ;
#91 = CARTESIAN_POINT ( 'NONE',  ( -0.4500000000000002900, 0.0000000000000000000, 0.0000000000000000000 ) ) ;
#92 = CARTESIAN_POINT ( 'NONE',  ( 0.4500000000000072300, 0.0000000000000000000, 12.50000000000000000 ) ) ;
#93 = EDGE_CURVE ( 'NONE', #146, #65, #80, .T. ) ;
#94 = DIRECTION ( 'NONE',  ( 0.0000000000000000000, 0.0000000000000000000, -1.000000000000000000 ) ) ;
#95 = CARTESIAN_POINT ( 'NONE',  ( 0.5000000000000000000, 0.0000000000000000000, 12.50000000000000000 ) ) ;
#96 = CARTESIAN_POINT ( 'NONE',  ( -0.4500000000000002900, 0.0000000000000000000, -12.50000000000000000 ) ) ;
#97 = APPROVAL_ROLE ( '' ) ;
#98 = DATE_AND_TIME ( #149, #261 ) ;
#99 = DIRECTION ( 'NONE',  ( -1.000000000000000000, -0.0000000000000000000, -0.0000000000000000000 ) ) ;
#100 = EDGE_LOOP ( 'NONE', ( #201, #106 ) ) ;
#101 = DIRECTION ( 'NONE',  ( 0.0000000000000000000, 0.0000000000000000000, -1.000000000000000000 ) ) ;
#102 = DIRECTION ( 'NONE',  ( 0.7071067811865597900, 0.0000000000000000000, -0.7071067811865352500 ) ) ;
#103 = AXIS2_PLACEMENT_3D ( 'NONE', #110, #68, #111 ) ;
#104 = AXIS2_PLACEMENT_3D ( 'NONE', #29, #30, #114 ) ;
#105 = DATE_AND_TIME ( #271, #220 ) ;
#106 = ORIENTED_EDGE ( 'NONE', *, *, #217, .T. ) ;
#107 = EDGE_CURVE ( 'NONE', #108, #203, #5, .T. ) ;
#108 = VERTEX_POINT ( 'NONE', #263 ) ;
#109 = APPROVAL ( #165, 'UNSPECIFIED' ) ;
#110 = CARTESIAN_POINT ( 'NONE',  ( 0.5000000000000000000, 0.0000000000000000000, 0.0000000000000000000 ) ) ;
#111 = DIRECTION ( 'NONE',  ( 0.0000000000000000000, 0.0000000000000000000, 1.000000000000000000 ) ) ;
#112 = SHAPE_DEFINITION_REPRESENTATION ( #25, #61 ) ;
#113 = CC_DESIGN_PERSON_AND_ORGANIZATION_ASSIGNMENT ( #131, #249, ( #211 ) ) ;
#114 = DIRECTION ( 'NONE',  ( 0.0000000000000000000, 0.0000000000000000000, -1.000000000000000000 ) ) ;
#115 = CARTESIAN_POINT ( 'NONE',  ( 0.5000000000000000000, 1.530808498934191500E-015, -12.50000000000000000 ) ) ;
#116 = DIRECTION ( 'NONE',  ( 0.0000000000000000000, 0.0000000000000000000, -1.000000000000000000 ) ) ;
#117 = ORIENTED_EDGE ( 'NONE', *, *, #235, .F. ) ;
#118 = APPLICATION_CONTEXT ( 'configuration controlled 3d designs of mechanical parts and assemblies' ) ;
#119 = DIRECTION ( 'NONE',  ( -1.000000000000000000, 0.0000000000000000000, 0.0000000000000000000 ) ) ;
#120 = CARTESIAN_POINT ( 'NONE',  ( 0.5000000000000000000, 0.0000000000000000000, 0.0000000000000000000 ) ) ;
#121 = ADVANCED_FACE ( 'NONE', ( #22 ), #240, .T. ) ;
#122 = DATE_TIME_ROLE ( 'classification_date' ) ;
#123 = FACE_OUTER_BOUND ( 'NONE', #169, .T. ) ;
#124 = CC_DESIGN_PERSON_AND_ORGANIZATION_ASSIGNMENT ( #39, #164, ( #78 ) ) ;
#125 = EDGE_CURVE ( 'NONE', #176, #140, #21, .T. ) ;
#126 = ORIENTED_EDGE ( 'NONE', *, *, #107, .F. ) ;
#127 = CC_DESIGN_PERSON_AND_ORGANIZATION_ASSIGNMENT ( #233, #137, ( #147 ) ) ;
#128 = LINE ( 'NONE', #96, #63 ) ;
#129 = ORIENTED_EDGE ( 'NONE', *, *, #107, .T. ) ;
#130 = AXIS2_PLACEMENT_3D ( 'NONE', #248, #32, #101 ) ;
#131 = PERSON_AND_ORGANIZATION ( #36, #56 ) ;
#132 = CARTESIAN_POINT ( 'NONE',  ( -0.4500000000000002900, 1.530808498934191500E-015, 12.50000000000000000 ) ) ;
#133 = EDGE_CURVE ( 'NONE', #203, #140, #234, .T. ) ;
#134 = CARTESIAN_POINT ( 'NONE',  ( -0.5000000000000000000, 1.527746881936323400E-015, 12.45000000000000300 ) ) ;
#135 = DIRECTION ( 'NONE',  ( 1.000000000000000000, -0.0000000000000000000, -0.0000000000000000000 ) ) ;
#136 = CYLINDRICAL_SURFACE ( 'NONE', #230, 12.50000000000000000 ) ;
#137 = PERSON_AND_ORGANIZATION_ROLE ( 'classification_officer' ) ;
#138 = APPLICATION_PROTOCOL_DEFINITION ( 'international standard', 'config_control_design', 1994, #226 ) ;
#139 = EDGE_CURVE ( 'NONE', #232, #108, #213, .T. ) ;
#140 = VERTEX_POINT ( 'NONE', #156 ) ;
#141 = SECURITY_CLASSIFICATION_LEVEL ( 'unclassified' ) ;
#142 = ADVANCED_FACE ( 'NONE', ( #189 ), #11, .T. ) ;
#143 = UNCERTAINTY_MEASURE_WITH_UNIT (LENGTH_MEASURE( 1.000000000000000100E-005 ), #206, 'distance_accuracy_value', 'NONE');
#144 = DATE_AND_TIME ( #255, #20 ) ;
#145 = FACE_OUTER_BOUND ( 'NONE', #82, .T. ) ;
#146 = VERTEX_POINT ( 'NONE', #267 ) ;
#147 = SECURITY_CLASSIFICATION ( '', '', #141 ) ;
#148 = EDGE_CURVE ( 'NONE', #108, #232, #188, .T. ) ;
#149 = CALENDAR_DATE ( 2019, 2, 1 ) ;
#150 = DESIGN_CONTEXT ( 'detailed design', #226, 'design' ) ;
#151 = PERSON_AND_ORGANIZATION ( #36, #56 ) ;
#152 = APPROVAL ( #15, 'UNSPECIFIED' ) ;
#153 = COORDINATED_UNIVERSAL_TIME_OFFSET ( 5, 0, .BEHIND. ) ;
#154 = EDGE_CURVE ( 'NONE', #232, #146, #69, .T. ) ;
#155 = CARTESIAN_POINT ( 'NONE',  ( 0.5000000000000000000, 0.0000000000000000000, 0.0000000000000000000 ) ) ;
#156 = CARTESIAN_POINT ( 'NONE',  ( -0.4500000000000002900, 0.0000000000000000000, 12.50000000000000000 ) ) ;
#157 = CIRCLE ( 'NONE', #204, 12.45000000000000300 ) ;
#158 = CARTESIAN_POINT ( 'NONE',  ( -0.4500000000000002900, 0.0000000000000000000, 0.0000000000000000000 ) ) ;
#159 = AXIS2_PLACEMENT_3D ( 'NONE', #120, #251, #273 ) ;
#160 = APPROVAL_STATUS ( 'not_yet_approved' ) ;
#161 = AXIS2_PLACEMENT_3D ( 'NONE', #237, #242, #73 ) ;
#162 = COORDINATED_UNIVERSAL_TIME_OFFSET ( 5, 0, .BEHIND. ) ;
#163 = ORIENTED_EDGE ( 'NONE', *, *, #139, .T. ) ;
#164 = PERSON_AND_ORGANIZATION_ROLE ( 'creator' ) ;
#165 = APPROVAL_STATUS ( 'not_yet_approved' ) ;
#166 = COORDINATED_UNIVERSAL_TIME_OFFSET ( 5, 0, .BEHIND. ) ;
#167 = PRODUCT ( 'Web Model 11876_11879', 'Web Model 11876_11879', '', ( #12 ) ) ;
#168 = CIRCLE ( 'NONE', #57, 12.50000000000000000 ) ;
#169 = EDGE_LOOP ( 'NONE', ( #175, #66, #172, #18 ) ) ;
#170 = CC_DESIGN_APPROVAL ( #173, ( #147 ) ) ;
#171 = EDGE_CURVE ( 'NONE', #45, #176, #157, .T. ) ;
#172 = ORIENTED_EDGE ( 'NONE', *, *, #133, .T. ) ;
#173 = APPROVAL ( #160, 'UNSPECIFIED' ) ;
#174 = PLANE ( 'NONE',  #257 ) ;
#175 = ORIENTED_EDGE ( 'NONE', *, *, #93, .F. ) ;
#176 = VERTEX_POINT ( 'NONE', #134 ) ;
#177 = CARTESIAN_POINT ( 'NONE',  ( -0.5000000000000000000, 0.0000000000000000000, 0.0000000000000000000 ) ) ;
#178 = DIRECTION ( 'NONE',  ( 1.000000000000000000, 0.0000000000000000000, 0.0000000000000000000 ) ) ;
#179 = COORDINATED_UNIVERSAL_TIME_OFFSET ( 5, 0, .BEHIND. ) ;
#180 = FACE_OUTER_BOUND ( 'NONE', #87, .T. ) ;
#181 = DIRECTION ( 'NONE',  ( -0.7071067811865107100, 0.0000000000000000000, 0.7071067811865843200 ) ) ;
#182 = CARTESIAN_POINT ( 'NONE',  ( -0.5000000000000000000, 0.0000000000000000000, 0.0000000000000000000 ) ) ;
#183 = DATE_TIME_ROLE ( 'creation_date' ) ;
#184 = ORIENTED_EDGE ( 'NONE', *, *, #217, .F. ) ;
#185 = CC_DESIGN_SECURITY_CLASSIFICATION ( #147, ( #211 ) ) ;
#186 =( NAMED_UNIT ( * ) PLANE_ANGLE_UNIT ( ) SI_UNIT ( $, .RADIAN. ) );
#187 = PERSON_AND_ORGANIZATION_ROLE ( 'design_owner' ) ;
#188 = CIRCLE ( 'NONE', #221, 12.45000000000000300 ) ;
#189 = FACE_OUTER_BOUND ( 'NONE', #231, .T. ) ;
#190 = ORIENTED_EDGE ( 'NONE', *, *, #133, .F. ) ;
#191 = AXIS2_PLACEMENT_3D ( 'NONE', #67, #72, #9 ) ;
#192 = DATE_AND_TIME ( #207, #62 ) ;
#193 = VECTOR ( 'NONE', #181, 1000.000000000000000 ) ;
#194 = CC_DESIGN_APPROVAL ( #109, ( #78 ) ) ;
#195 = CONICAL_SURFACE ( 'NONE', #8, 12.50000000000000000, 0.7853981633974309600 ) ;
#196 = DIRECTION ( 'NONE',  ( 0.0000000000000000000, 0.0000000000000000000, -1.000000000000000000 ) ) ;
#197 = ORIENTED_EDGE ( 'NONE', *, *, #42, .T. ) ;
#198 = EDGE_CURVE ( 'NONE', #146, #203, #16, .T. ) ;
#199 = DIRECTION ( 'NONE',  ( 0.0000000000000000000, 0.0000000000000000000, 1.000000000000000000 ) ) ;
#200 = CARTESIAN_POINT ( 'NONE',  ( 0.4500000000000072300, 0.0000000000000000000, 0.0000000000000000000 ) ) ;
#201 = ORIENTED_EDGE ( 'NONE', *, *, #171, .T. ) ;
#202 = CARTESIAN_POINT ( 'NONE',  ( 0.5000000000000000000, 0.0000000000000000000, 12.45000000000000300 ) ) ;
#203 = VERTEX_POINT ( 'NONE', #92 ) ;
#204 = AXIS2_PLACEMENT_3D ( 'NONE', #182, #28, #48 ) ;
#205 = PERSON_AND_ORGANIZATION_ROLE ( 'creator' ) ;
#206 =( LENGTH_UNIT ( ) NAMED_UNIT ( * ) SI_UNIT ( .MILLI., .METRE. ) );
#207 = CALENDAR_DATE ( 2019, 2, 1 ) ;
#208 = CALENDAR_DATE ( 2019, 2, 1 ) ;
#209 = EDGE_LOOP ( 'NONE', ( #60, #2, #197, #190 ) ) ;
#210 = ADVANCED_FACE ( 'NONE', ( #145 ), #250, .T. ) ;
#211 = PRODUCT_DEFINITION_FORMATION_WITH_SPECIFIED_SOURCE ( 'ANY', '', #167, .NOT_KNOWN. ) ;
#212 = DIRECTION ( 'NONE',  ( 0.0000000000000000000, 0.0000000000000000000, 1.000000000000000000 ) ) ;
#213 = CIRCLE ( 'NONE', #104, 12.45000000000000300 ) ;
#214 = CC_DESIGN_DATE_AND_TIME_ASSIGNMENT ( #192, #122, ( #147 ) ) ;
#215 = APPROVAL_PERSON_ORGANIZATION ( #256, #152, #97 ) ;
#216 = ORIENTED_EDGE ( 'NONE', *, *, #125, .T. ) ;
#217 = EDGE_CURVE ( 'NONE', #176, #45, #245, .T. ) ;
#218 = ORIENTED_EDGE ( 'NONE', *, *, #235, .T. ) ;
#219 = DIRECTION ( 'NONE',  ( 0.0000000000000000000, 0.0000000000000000000, -1.000000000000000000 ) ) ;
#220 = LOCAL_TIME ( 13, 25, 35.00000000000000000, #166 ) ;
#221 = AXIS2_PLACEMENT_3D ( 'NONE', #155, #178, #10 ) ;
#222 = DIRECTION ( 'NONE',  ( -1.000000000000000000, -0.0000000000000000000, -0.0000000000000000000 ) ) ;
#223 = PRODUCT_RELATED_PRODUCT_CATEGORY ( 'detail', '', ( #167 ) ) ;
#224 = DIRECTION ( 'NONE',  ( 1.000000000000000000, -0.0000000000000000000, -0.0000000000000000000 ) ) ;
#225 = APPROVAL_PERSON_ORGANIZATION ( #3, #109, #270 ) ;
#226 = APPLICATION_CONTEXT ( 'configuration controlled 3d designs of mechanical parts and assemblies' ) ;
#227 = VECTOR ( 'NONE', #7, 1000.000000000000000 ) ;
#228 = CARTESIAN_POINT ( 'NONE',  ( 0.0000000000000000000, 0.0000000000000000000, 0.0000000000000000000 ) ) ;
#229 = MANIFOLD_SOLID_BREP ( 'Chamfer1', #37 ) ;
#230 = AXIS2_PLACEMENT_3D ( 'NONE', #274, #99, #212 ) ;
#231 = EDGE_LOOP ( 'NONE', ( #6, #31, #218, #74 ) ) ;
#232 = VERTEX_POINT ( 'NONE', #269 ) ;
#233 = PERSON_AND_ORGANIZATION ( #36, #56 ) ;
#234 = LINE ( 'NONE', #95, #47 ) ;
#235 = EDGE_CURVE ( 'NONE', #45, #65, #128, .T. ) ;
#236 = APPROVAL_DATE_TIME ( #144, #173 ) ;
#237 = CARTESIAN_POINT ( 'NONE',  ( 0.5000000000000000000, 0.0000000000000000000, 0.0000000000000000000 ) ) ;
#238 = ORIENTED_EDGE ( 'NONE', *, *, #139, .F. ) ;
#239 = DIRECTION ( 'NONE',  ( 0.0000000000000000000, 0.0000000000000000000, -1.000000000000000000 ) ) ;
#240 = CONICAL_SURFACE ( 'NONE', #76, 12.45000000000000300, 0.7853981633975003500 ) ;
#241 = DIRECTION ( 'NONE',  ( -1.000000000000000000, 0.0000000000000000000, 0.0000000000000000000 ) ) ;
#242 = DIRECTION ( 'NONE',  ( 1.000000000000000000, 0.0000000000000000000, 0.0000000000000000000 ) ) ;
#243 = CARTESIAN_POINT ( 'NONE',  ( -0.4500000000000002900, 1.530808498934191500E-015, -12.50000000000000000 ) ) ;
#244 = DIRECTION ( 'NONE',  ( 0.0000000000000000000, 0.0000000000000000000, -1.000000000000000000 ) ) ;
#245 = CIRCLE ( 'NONE', #130, 12.45000000000000300 ) ;
#246 = EDGE_LOOP ( 'NONE', ( #259, #163 ) ) ;
#247 = AXIS2_PLACEMENT_3D ( 'NONE', #228, #34, #77 ) ;
#248 = CARTESIAN_POINT ( 'NONE',  ( -0.5000000000000000000, 0.0000000000000000000, 0.0000000000000000000 ) ) ;
#249 = PERSON_AND_ORGANIZATION_ROLE ( 'design_supplier' ) ;
#250 = CONICAL_SURFACE ( 'NONE', #103, 12.45000000000000300, 0.7853981633975003500 ) ;
#251 = DIRECTION ( 'NONE',  ( -1.000000000000000000, -0.0000000000000000000, -0.0000000000000000000 ) ) ;
#252 = ADVANCED_FACE ( 'NONE', ( #27 ), #136, .T. ) ;
#253 = CIRCLE ( 'NONE', #191, 12.50000000000000000 ) ;
#254 = ORIENTED_EDGE ( 'NONE', *, *, #42, .F. ) ;
#255 = CALENDAR_DATE ( 2019, 2, 1 ) ;
#256 = PERSON_AND_ORGANIZATION ( #36, #56 ) ;
#257 = AXIS2_PLACEMENT_3D ( 'NONE', #177, #41, #196 ) ;
#258 = CIRCLE ( 'NONE', #70, 12.50000000000000000 ) ;
#259 = ORIENTED_EDGE ( 'NONE', *, *, #148, .T. ) ;
#260 = EDGE_CURVE ( 'NONE', #203, #146, #258, .T. ) ;
#261 = LOCAL_TIME ( 13, 25, 35.00000000000000000, #153 ) ;
#262 = ORIENTED_EDGE ( 'NONE', *, *, #148, .F. ) ;
#263 = CARTESIAN_POINT ( 'NONE',  ( 0.5000000000000000000, 0.0000000000000000000, 12.45000000000000300 ) ) ;
#264 = CARTESIAN_POINT ( 'NONE',  ( 0.5000000000000000000, 1.524685264938455200E-015, -12.45000000000000300 ) ) ;
#265 = CYLINDRICAL_SURFACE ( 'NONE', #159, 12.50000000000000000 ) ;
#266 = DIRECTION ( 'NONE',  ( 0.7071067811865597900, 8.659560562354782500E-017, 0.7071067811865352500 ) ) ;
#267 = CARTESIAN_POINT ( 'NONE',  ( 0.4500000000000072300, 1.530808498934191500E-015, -12.50000000000000000 ) ) ;
#268 = ADVANCED_FACE ( 'NONE', ( #123 ), #265, .T. ) ;
#269 = CARTESIAN_POINT ( 'NONE',  ( 0.5000000000000000000, 1.527746881936323400E-015, -12.45000000000000300 ) ) ;
#270 = APPROVAL_ROLE ( '' ) ;
#271 = CALENDAR_DATE ( 2019, 2, 1 ) ;
#272 = ORIENTED_EDGE ( 'NONE', *, *, #154, .F. ) ;
#273 = DIRECTION ( 'NONE',  ( 0.0000000000000000000, 0.0000000000000000000, 1.000000000000000000 ) ) ;
#274 = CARTESIAN_POINT ( 'NONE',  ( 0.5000000000000000000, 0.0000000000000000000, 0.0000000000000000000 ) ) ;
#275 = EDGE_LOOP ( 'NONE', ( #238, #88, #23, #126 ) ) ;
ENDSEC;
END-ISO-10303-21;
