ISO-10303-21;
HEADER;
FILE_DESCRIPTION (( 'STEP AP214' ),
    '1' );
FILE_NAME ('21325.step',
    '2022-07-14T19:21:13',
    ( '' ),
    ( '' ),
    'SwSTEP 2.0',
    'SolidWorks 2021',
    '' );
FILE_SCHEMA (( 'AUTOMOTIVE_DESIGN' ));
ENDSEC;

DATA;
#1 = UNCERTAINTY_MEASURE_WITH_UNIT (LENGTH_MEASURE( 1.000000000000000082E-05 ), #13, 'distance_accuracy_value', 'NONE');
#2 = ORIENTED_EDGE ( 'NONE', *, *, #78, .T. ) ;
#3 = SURFACE_STYLE_FILL_AREA ( #83 ) ;
#4 = CARTESIAN_POINT ( 'NONE',  ( 0.000000000000000000, 0.000000000000000000, 1.000000000000000000 ) ) ;
#5 =( NAMED_UNIT ( * ) PLANE_ANGLE_UNIT ( ) SI_UNIT ( $, .RADIAN. ) );
#6 = MECHANICAL_DESIGN_GEOMETRIC_PRESENTATION_REPRESENTATION (  '', ( #117 ), #36 ) ;
#7 = PRODUCT_DEFINITION ( 'UNKNOWN', '', #112, #86 ) ;
#8 = EDGE_CURVE ( 'NONE', #66, #126, #44, .T. ) ;
#9 =( GEOMETRIC_REPRESENTATION_CONTEXT ( 3 ) GLOBAL_UNCERTAINTY_ASSIGNED_CONTEXT ( ( #1 ) ) GLOBAL_UNIT_ASSIGNED_CONTEXT ( ( #13, #5, #93 ) ) REPRESENTATION_CONTEXT ( 'NONE', 'WORKASPACE' ) );
#10 = ORIENTED_EDGE ( 'NONE', *, *, #77, .T. ) ;
#11 = LINE ( 'NONE', #109, #42 ) ;
#12 = CARTESIAN_POINT ( 'NONE',  ( 0.000000000000000000, 0.000000000000000000, 0.000000000000000000 ) ) ;
#13 =( LENGTH_UNIT ( ) NAMED_UNIT ( * ) SI_UNIT ( .MILLI., .METRE. ) );
#14 = CARTESIAN_POINT ( 'NONE',  ( 0.000000000000000000, 0.000000000000000000, 1.000000000000000000 ) ) ;
#15 =( NAMED_UNIT ( * ) SI_UNIT ( $, .STERADIAN. ) SOLID_ANGLE_UNIT ( ) );
#16 = AXIS2_PLACEMENT_3D ( 'NONE', #51, #62, #61 ) ;
#17 = CARTESIAN_POINT ( 'NONE',  ( 0.000000000000000000, 0.000000000000000000, 0.000000000000000000 ) ) ;
#18 = PRESENTATION_LAYER_ASSIGNMENT (  '', '', ( #117 ) ) ;
#19 = ORIENTED_EDGE ( 'NONE', *, *, #77, .F. ) ;
#20 = DIRECTION ( 'NONE',  ( 1.000000000000000000, 0.000000000000000000, -0.000000000000000000 ) ) ;
#21 = ADVANCED_FACE ( 'NONE', ( #135 ), #81, .T. ) ;
#22 = PLANE ( 'NONE',  #111 ) ;
#23 = DIRECTION ( 'NONE',  ( 0.000000000000000000, 0.000000000000000000, 1.000000000000000000 ) ) ;
#24 = STYLED_ITEM ( 'NONE', ( #31 ), #119 ) ;
#25 = CARTESIAN_POINT ( 'NONE',  ( 0.000000000000000000, 0.000000000000000000, 0.000000000000000000 ) ) ;
#26 = SURFACE_STYLE_FILL_AREA ( #139 ) ;
#27 = ORIENTED_EDGE ( 'NONE', *, *, #8, .T. ) ;
#28 = ADVANCED_FACE ( 'NONE', ( #128 ), #22, .F. ) ;
#29 = ORIENTED_EDGE ( 'NONE', *, *, #78, .F. ) ;
#30 = EDGE_LOOP ( 'NONE', ( #113, #103 ) ) ;
#31 = PRESENTATION_STYLE_ASSIGNMENT (( #84 ) ) ;
#32 = PLANE ( 'NONE',  #102 ) ;
#33 = DIRECTION ( 'NONE',  ( 1.000000000000000000, 0.000000000000000000, 0.000000000000000000 ) ) ;
#34 =( NAMED_UNIT ( * ) SI_UNIT ( $, .STERADIAN. ) SOLID_ANGLE_UNIT ( ) );
#35 =( GEOMETRIC_REPRESENTATION_CONTEXT ( 3 ) GLOBAL_UNCERTAINTY_ASSIGNED_CONTEXT ( ( #124 ) ) GLOBAL_UNIT_ASSIGNED_CONTEXT ( ( #48, #50, #34 ) ) REPRESENTATION_CONTEXT ( 'NONE', 'WORKASPACE' ) );
#36 =( GEOMETRIC_REPRESENTATION_CONTEXT ( 3 ) GLOBAL_UNCERTAINTY_ASSIGNED_CONTEXT ( ( #58 ) ) GLOBAL_UNIT_ASSIGNED_CONTEXT ( ( #95, #110, #15 ) ) REPRESENTATION_CONTEXT ( 'NONE', 'WORKASPACE' ) );
#37 = FACE_OUTER_BOUND ( 'NONE', #104, .T. ) ;
#38 = FILL_AREA_STYLE_COLOUR ( '', #47 ) ;
#39 = CIRCLE ( 'NONE', #55, 12.50000000000000000 ) ;
#40 = APPLICATION_PROTOCOL_DEFINITION ( 'draft international standard', 'automotive_design', 1998, #114 ) ;
#41 = EDGE_CURVE ( 'NONE', #88, #101, #39, .T. ) ;
#42 = VECTOR ( 'NONE', #70, 1000.000000000000000 ) ;
#43 = ORIENTED_EDGE ( 'NONE', *, *, #105, .F. ) ;
#44 = CIRCLE ( 'NONE', #133, 12.50000000000000000 ) ;
#45 = EDGE_LOOP ( 'NONE', ( #29, #115, #134, #57 ) ) ;
#46 = CYLINDRICAL_SURFACE ( 'NONE', #16, 12.50000000000000000 ) ;
#47 = COLOUR_RGB ( '',0.7921568627450980005, 0.8196078431372548767, 0.9333333333333333481 ) ;
#48 =( LENGTH_UNIT ( ) NAMED_UNIT ( * ) SI_UNIT ( .MILLI., .METRE. ) );
#49 = LINE ( 'NONE', #108, #131 ) ;
#50 =( NAMED_UNIT ( * ) PLANE_ANGLE_UNIT ( ) SI_UNIT ( $, .RADIAN. ) );
#51 = CARTESIAN_POINT ( 'NONE',  ( 0.000000000000000000, 0.000000000000000000, 1.000000000000000000 ) ) ;
#52 = AXIS2_PLACEMENT_3D ( 'NONE', #63, #23, #90 ) ;
#53 = SURFACE_STYLE_USAGE ( .BOTH. , #140 ) ;
#54 = DIRECTION ( 'NONE',  ( 0.000000000000000000, 0.000000000000000000, 1.000000000000000000 ) ) ;
#55 = AXIS2_PLACEMENT_3D ( 'NONE', #4, #138, #118 ) ;
#56 = ADVANCED_FACE ( 'NONE', ( #68 ), #32, .T. ) ;
#57 = ORIENTED_EDGE ( 'NONE', *, *, #71, .T. ) ;
#58 = UNCERTAINTY_MEASURE_WITH_UNIT (LENGTH_MEASURE( 1.000000000000000082E-05 ), #95, 'distance_accuracy_value', 'NONE');
#59 = AXIS2_PLACEMENT_3D ( 'NONE', #97, #54, #98 ) ;
#60 = DIRECTION ( 'NONE',  ( 0.000000000000000000, 0.000000000000000000, 1.000000000000000000 ) ) ;
#61 = DIRECTION ( 'NONE',  ( -1.000000000000000000, 0.000000000000000000, 0.000000000000000000 ) ) ;
#62 = DIRECTION ( 'NONE',  ( -0.000000000000000000, -0.000000000000000000, -1.000000000000000000 ) ) ;
#63 = CARTESIAN_POINT ( 'NONE',  ( 0.000000000000000000, 0.000000000000000000, 1.000000000000000000 ) ) ;
#64 = CARTESIAN_POINT ( 'NONE',  ( 12.50000000000000000, 1.530808498934191521E-15, 0.000000000000000000 ) ) ;
#65 = COLOUR_RGB ( '',0.7921568627450980005, 0.8196078431372548767, 0.9333333333333333481 ) ;
#66 = VERTEX_POINT ( 'NONE', #64 ) ;
#67 = DIRECTION ( 'NONE',  ( 0.000000000000000000, 0.000000000000000000, 1.000000000000000000 ) ) ;
#68 = FACE_OUTER_BOUND ( 'NONE', #79, .T. ) ;
#69 = CIRCLE ( 'NONE', #52, 12.50000000000000000 ) ;
#70 = DIRECTION ( 'NONE',  ( -0.000000000000000000, -0.000000000000000000, -1.000000000000000000 ) ) ;
#71 = EDGE_CURVE ( 'NONE', #126, #66, #132, .T. ) ;
#72 = CARTESIAN_POINT ( 'NONE',  ( -12.50000000000000000, 0.000000000000000000, 0.000000000000000000 ) ) ;
#73 = DIRECTION ( 'NONE',  ( 0.000000000000000000, 0.000000000000000000, 1.000000000000000000 ) ) ;
#74 = PRESENTATION_STYLE_ASSIGNMENT (( #53 ) ) ;
#75 = MECHANICAL_DESIGN_GEOMETRIC_PRESENTATION_REPRESENTATION (  '', ( #24 ), #35 ) ;
#76 = APPLICATION_PROTOCOL_DEFINITION ( 'draft international standard', 'automotive_design', 1998, #87 ) ;
#77 = EDGE_CURVE ( 'NONE', #101, #88, #69, .T. ) ;
#78 = EDGE_CURVE ( 'NONE', #101, #66, #11, .T. ) ;
#79 = EDGE_LOOP ( 'NONE', ( #80, #10 ) ) ;
#80 = ORIENTED_EDGE ( 'NONE', *, *, #41, .T. ) ;
#81 = CYLINDRICAL_SURFACE ( 'NONE', #100, 12.50000000000000000 ) ;
#82 = DIRECTION ( 'NONE',  ( -1.000000000000000000, 0.000000000000000000, 0.000000000000000000 ) ) ;
#83 = FILL_AREA_STYLE ('',( #136 ) ) ;
#84 = SURFACE_STYLE_USAGE ( .BOTH. , #91 ) ;
#85 = SHAPE_DEFINITION_REPRESENTATION ( #137, #96 ) ;
#86 = PRODUCT_DEFINITION_CONTEXT ( 'detailed design', #114, 'design' ) ;
#87 = APPLICATION_CONTEXT ( 'automotive_design' ) ;
#88 = VERTEX_POINT ( 'NONE', #120 ) ;
#89 = DIRECTION ( 'NONE',  ( -0.000000000000000000, -0.000000000000000000, -1.000000000000000000 ) ) ;
#90 = DIRECTION ( 'NONE',  ( 1.000000000000000000, 0.000000000000000000, 0.000000000000000000 ) ) ;
#91 = SURFACE_SIDE_STYLE ('',( #3 ) ) ;
#92 = AXIS2_PLACEMENT_3D ( 'NONE', #12, #73, #33 ) ;
#93 =( NAMED_UNIT ( * ) SI_UNIT ( $, .STERADIAN. ) SOLID_ANGLE_UNIT ( ) );
#94 = ADVANCED_FACE ( 'NONE', ( #37 ), #46, .T. ) ;
#95 =( LENGTH_UNIT ( ) NAMED_UNIT ( * ) SI_UNIT ( .MILLI., .METRE. ) );
#96 = ADVANCED_BREP_SHAPE_REPRESENTATION ( '21325', ( #119, #59 ), #9 ) ;
#97 = CARTESIAN_POINT ( 'NONE',  ( 0.000000000000000000, 0.000000000000000000, 0.000000000000000000 ) ) ;
#98 = DIRECTION ( 'NONE',  ( 1.000000000000000000, 0.000000000000000000, 0.000000000000000000 ) ) ;
#99 = PRODUCT_RELATED_PRODUCT_CATEGORY ( 'part', '', ( #121 ) ) ;
#100 = AXIS2_PLACEMENT_3D ( 'NONE', #14, #107, #82 ) ;
#101 = VERTEX_POINT ( 'NONE', #129 ) ;
#102 = AXIS2_PLACEMENT_3D ( 'NONE', #130, #60, #122 ) ;
#103 = ORIENTED_EDGE ( 'NONE', *, *, #8, .F. ) ;
#104 = EDGE_LOOP ( 'NONE', ( #19, #2, #27, #43 ) ) ;
#105 = EDGE_CURVE ( 'NONE', #88, #126, #49, .T. ) ;
#106 = CLOSED_SHELL ( 'NONE', ( #94, #21, #56, #28 ) ) ;
#107 = DIRECTION ( 'NONE',  ( -0.000000000000000000, -0.000000000000000000, -1.000000000000000000 ) ) ;
#108 = CARTESIAN_POINT ( 'NONE',  ( -12.50000000000000000, 0.000000000000000000, 1.000000000000000000 ) ) ;
#109 = CARTESIAN_POINT ( 'NONE',  ( 12.50000000000000000, 1.530808498934191521E-15, 1.000000000000000000 ) ) ;
#110 =( NAMED_UNIT ( * ) PLANE_ANGLE_UNIT ( ) SI_UNIT ( $, .RADIAN. ) );
#111 = AXIS2_PLACEMENT_3D ( 'NONE', #25, #127, #20 ) ;
#112 = PRODUCT_DEFINITION_FORMATION_WITH_SPECIFIED_SOURCE ( 'ANY', '', #121, .NOT_KNOWN. ) ;
#113 = ORIENTED_EDGE ( 'NONE', *, *, #71, .F. ) ;
#114 = APPLICATION_CONTEXT ( 'automotive_design' ) ;
#115 = ORIENTED_EDGE ( 'NONE', *, *, #41, .F. ) ;
#116 = DIRECTION ( 'NONE',  ( 1.000000000000000000, 0.000000000000000000, 0.000000000000000000 ) ) ;
#117 = STYLED_ITEM ( 'NONE', ( #74 ), #96 ) ;
#118 = DIRECTION ( 'NONE',  ( 1.000000000000000000, 0.000000000000000000, 0.000000000000000000 ) ) ;
#119 = MANIFOLD_SOLID_BREP ( 'Boss-Extrude1', #106 ) ;
#120 = CARTESIAN_POINT ( 'NONE',  ( -12.50000000000000000, 0.000000000000000000, 1.000000000000000000 ) ) ;
#121 = PRODUCT ( '21325', '21325', '', ( #123 ) ) ;
#122 = DIRECTION ( 'NONE',  ( 1.000000000000000000, 0.000000000000000000, -0.000000000000000000 ) ) ;
#123 = PRODUCT_CONTEXT ( 'NONE', #87, 'mechanical' ) ;
#124 = UNCERTAINTY_MEASURE_WITH_UNIT (LENGTH_MEASURE( 1.000000000000000082E-05 ), #48, 'distance_accuracy_value', 'NONE');
#125 = PRESENTATION_LAYER_ASSIGNMENT (  '', '', ( #24 ) ) ;
#126 = VERTEX_POINT ( 'NONE', #72 ) ;
#127 = DIRECTION ( 'NONE',  ( 0.000000000000000000, 0.000000000000000000, 1.000000000000000000 ) ) ;
#128 = FACE_OUTER_BOUND ( 'NONE', #30, .T. ) ;
#129 = CARTESIAN_POINT ( 'NONE',  ( 12.50000000000000000, 1.530808498934191521E-15, 1.000000000000000000 ) ) ;
#130 = CARTESIAN_POINT ( 'NONE',  ( 0.000000000000000000, 0.000000000000000000, 1.000000000000000000 ) ) ;
#131 = VECTOR ( 'NONE', #89, 1000.000000000000000 ) ;
#132 = CIRCLE ( 'NONE', #92, 12.50000000000000000 ) ;
#133 = AXIS2_PLACEMENT_3D ( 'NONE', #17, #67, #116 ) ;
#134 = ORIENTED_EDGE ( 'NONE', *, *, #105, .T. ) ;
#135 = FACE_OUTER_BOUND ( 'NONE', #45, .T. ) ;
#136 = FILL_AREA_STYLE_COLOUR ( '', #65 ) ;
#137 = PRODUCT_DEFINITION_SHAPE ( 'NONE', 'NONE',  #7 ) ;
#138 = DIRECTION ( 'NONE',  ( 0.000000000000000000, 0.000000000000000000, 1.000000000000000000 ) ) ;
#139 = FILL_AREA_STYLE ('',( #38 ) ) ;
#140 = SURFACE_SIDE_STYLE ('',( #26 ) ) ;
ENDSEC;
END-ISO-10303-21;
