ISO-10303-21;
HEADER;
FILE_DESCRIPTION (( 'STEP AP203' ),
    '1' );
FILE_NAME ('Web Model 68739.STEP',
    '2017-02-01T13:22:02',
    ( '' ),
    ( '' ),
    'SwSTEP 2.0',
    'SolidWorks 2016',
    '' );
FILE_SCHEMA (( 'CONFIG_CONTROL_DESIGN' ));
ENDSEC;

DATA;
#1 = APPLICATION_CONTEXT ( 'configuration controlled 3d designs of mechanical parts and assemblies' ) ;
#2 = AXIS2_PLACEMENT_3D ( 'NONE', #63, #145, #101 ) ;
#3 = PLANE ( 'NONE',  #2 ) ;
#4 = APPROVAL_DATE_TIME ( #38, #151 ) ;
#5 = DIRECTION ( 'NONE',  ( 1.000000000000000000, 0.0000000000000000000, 0.0000000000000000000 ) ) ;
#6 = CIRCLE ( 'NONE', #93, 20.00000000000000000 ) ;
#7 = LOCAL_TIME ( 8, 22, 2.000000000000000000, #108 ) ;
#8 = CC_DESIGN_APPROVAL ( #151, ( #114 ) ) ;
#9 = FACE_OUTER_BOUND ( 'NONE', #90, .T. ) ;
#10 = AXIS2_PLACEMENT_3D ( 'NONE', #116, #32, #157 ) ;
#11 = DATE_AND_TIME ( #61, #48 ) ;
#12 = CIRCLE ( 'NONE', #107, 20.00000000000000000 ) ;
#13 = MECHANICAL_CONTEXT ( 'NONE', #89, 'mechanical' ) ;
#14 = EDGE_CURVE ( 'NONE', #169, #154, #120, .T. ) ;
#15 = DIRECTION ( 'NONE',  ( 0.0000000000000000000, 0.0000000000000000000, 1.000000000000000000 ) ) ;
#16 = SECURITY_CLASSIFICATION_LEVEL ( 'unclassified' ) ;
#17 = ORGANIZATION ( 'UNSPECIFIED', 'UNSPECIFIED', '' ) ;
#18 = DIRECTION ( 'NONE',  ( 0.0000000000000000000, 0.0000000000000000000, 1.000000000000000000 ) ) ;
#19 = ORIENTED_EDGE ( 'NONE', *, *, #103, .T. ) ;
#20 = ORIENTED_EDGE ( 'NONE', *, *, #113, .T. ) ;
#21 = SHAPE_DEFINITION_REPRESENTATION ( #139, #106 ) ;
#22 = ADVANCED_FACE ( 'NONE', ( #47 ), #125, .T. ) ;
#23 = CC_DESIGN_PERSON_AND_ORGANIZATION_ASSIGNMENT ( #52, #54, ( #109 ) ) ;
#24 = CALENDAR_DATE ( 2017, 1, 2 ) ;
#25 = AXIS2_PLACEMENT_3D ( 'NONE', #34, #164, #18 ) ;
#26 = DATE_AND_TIME ( #128, #7 ) ;
#27 = ORIENTED_EDGE ( 'NONE', *, *, #143, .T. ) ;
#28 = APPROVAL_ROLE ( '' ) ;
#29 = DIRECTION ( 'NONE',  ( 0.0000000000000000000, 0.0000000000000000000, -1.000000000000000000 ) ) ;
#30 = APPROVAL_STATUS ( 'not_yet_approved' ) ;
#31 = PERSON_AND_ORGANIZATION ( #105, #17 ) ;
#32 = DIRECTION ( 'NONE',  ( 0.0000000000000000000, 0.0000000000000000000, 1.000000000000000000 ) ) ;
#33 = DIRECTION ( 'NONE',  ( 0.0000000000000000000, 0.0000000000000000000, -1.000000000000000000 ) ) ;
#34 = CARTESIAN_POINT ( 'NONE',  ( 4.000000000000000000, 0.0000000000000000000, 0.0000000000000000000 ) ) ;
#35 = PERSON_AND_ORGANIZATION ( #105, #17 ) ;
#36 = CC_DESIGN_PERSON_AND_ORGANIZATION_ASSIGNMENT ( #31, #88, ( #74 ) ) ;
#37 = ORIENTED_EDGE ( 'NONE', *, *, #138, .F. ) ;
#38 = DATE_AND_TIME ( #70, #102 ) ;
#39 = CARTESIAN_POINT ( 'NONE',  ( 4.000000000000000000, 0.0000000000000000000, 0.0000000000000000000 ) ) ;
#40 = FACE_OUTER_BOUND ( 'NONE', #136, .T. ) ;
#41 = APPROVAL_ROLE ( '' ) ;
#42 = AXIS2_PLACEMENT_3D ( 'NONE', #79, #5, #162 ) ;
#43 = CARTESIAN_POINT ( 'NONE',  ( 4.000000000000000000, 0.0000000000000000000, 0.0000000000000000000 ) ) ;
#44 = DIRECTION ( 'NONE',  ( -1.000000000000000000, -0.0000000000000000000, -0.0000000000000000000 ) ) ;
#45 = DESIGN_CONTEXT ( 'detailed design', #1, 'design' ) ;
#46 = MANIFOLD_SOLID_BREP ( 'Extrude1', #127 ) ;
#47 = FACE_OUTER_BOUND ( 'NONE', #152, .T. ) ;
#48 = LOCAL_TIME ( 8, 22, 2.000000000000000000, #51 ) ;
#49 = CALENDAR_DATE ( 2017, 1, 2 ) ;
#50 = ADVANCED_FACE ( 'NONE', ( #9 ), #67, .F. ) ;
#51 = COORDINATED_UNIVERSAL_TIME_OFFSET ( 5, 0, .BEHIND. ) ;
#52 = PERSON_AND_ORGANIZATION ( #105, #17 ) ;
#53 = CARTESIAN_POINT ( 'NONE',  ( 4.000000000000000000, 0.0000000000000000000, 0.0000000000000000000 ) ) ;
#54 = PERSON_AND_ORGANIZATION_ROLE ( 'creator' ) ;
#55 = CARTESIAN_POINT ( 'NONE',  ( 0.0000000000000000000, 0.0000000000000000000, 20.00000000000000000 ) ) ;
#56 = DIRECTION ( 'NONE',  ( 0.0000000000000000000, 0.0000000000000000000, -1.000000000000000000 ) ) ;
#57 = VERTEX_POINT ( 'NONE', #149 ) ;
#58 = LOCAL_TIME ( 8, 22, 2.000000000000000000, #126 ) ;
#59 = AXIS2_PLACEMENT_3D ( 'NONE', #100, #75, #56 ) ;
#60 = ORIENTED_EDGE ( 'NONE', *, *, #146, .T. ) ;
#61 = CALENDAR_DATE ( 2017, 1, 2 ) ;
#62 = APPROVAL ( #30, 'UNSPECIFIED' ) ;
#63 = CARTESIAN_POINT ( 'NONE',  ( 4.000000000000000000, 0.0000000000000000000, 0.0000000000000000000 ) ) ;
#64 = PERSON_AND_ORGANIZATION_ROLE ( 'design_owner' ) ;
#65 = AXIS2_PLACEMENT_3D ( 'NONE', #43, #129, #15 ) ;
#66 = CARTESIAN_POINT ( 'NONE',  ( 0.0000000000000000000, 2.449293598294706500E-015, -20.00000000000000000 ) ) ;
#67 = PLANE ( 'NONE',  #42 ) ;
#68 = COORDINATED_UNIVERSAL_TIME_OFFSET ( 5, 0, .BEHIND. ) ;
#69 = CC_DESIGN_SECURITY_CLASSIFICATION ( #114, ( #109 ) ) ;
#70 = CALENDAR_DATE ( 2017, 1, 2 ) ;
#71 = CC_DESIGN_PERSON_AND_ORGANIZATION_ASSIGNMENT ( #110, #118, ( #109 ) ) ;
#72 = ADVANCED_FACE ( 'NONE', ( #92 ), #168, .T. ) ;
#73 = VECTOR ( 'NONE', #44, 1000.000000000000000 ) ;
#74 = PRODUCT_DEFINITION ( 'UNKNOWN', '', #109, #45 ) ;
#75 = DIRECTION ( 'NONE',  ( 1.000000000000000000, 0.0000000000000000000, 0.0000000000000000000 ) ) ;
#76 = CARTESIAN_POINT ( 'NONE',  ( 0.0000000000000000000, 0.0000000000000000000, 0.0000000000000000000 ) ) ;
#77 = DIRECTION ( 'NONE',  ( 1.000000000000000000, 0.0000000000000000000, 0.0000000000000000000 ) ) ;
#78 = CARTESIAN_POINT ( 'NONE',  ( 4.000000000000000000, 0.0000000000000000000, 20.00000000000000000 ) ) ;
#79 = CARTESIAN_POINT ( 'NONE',  ( 0.0000000000000000000, 0.0000000000000000000, 0.0000000000000000000 ) ) ;
#80 = LOCAL_TIME ( 8, 22, 2.000000000000000000, #115 ) ;
#81 = LINE ( 'NONE', #161, #73 ) ;
#82 = APPROVAL_DATE_TIME ( #124, #166 ) ;
#83 = ORIENTED_EDGE ( 'NONE', *, *, #14, .F. ) ;
#84 = ORIENTED_EDGE ( 'NONE', *, *, #113, .F. ) ;
#85 = VECTOR ( 'NONE', #121, 1000.000000000000000 ) ;
#86 = APPROVAL_STATUS ( 'not_yet_approved' ) ;
#87 = AXIS2_PLACEMENT_3D ( 'NONE', #39, #99, #117 ) ;
#88 = PERSON_AND_ORGANIZATION_ROLE ( 'creator' ) ;
#89 = APPLICATION_CONTEXT ( 'configuration controlled 3d designs of mechanical parts and assemblies' ) ;
#90 = EDGE_LOOP ( 'NONE', ( #141, #37 ) ) ;
#91 = PRODUCT ( 'Web Model 68739', 'Web Model 68739', '', ( #13 ) ) ;
#92 = FACE_OUTER_BOUND ( 'NONE', #111, .T. ) ;
#93 = AXIS2_PLACEMENT_3D ( 'NONE', #76, #98, #33 ) ;
#94 = DATE_AND_TIME ( #49, #80 ) ;
#95 = CC_DESIGN_DATE_AND_TIME_ASSIGNMENT ( #26, #134, ( #74 ) ) ;
#96 = DATE_TIME_ROLE ( 'classification_date' ) ;
#97 = UNCERTAINTY_MEASURE_WITH_UNIT (LENGTH_MEASURE( 1.000000000000000100E-005 ), #155, 'distance_accuracy_value', 'NONE');
#98 = DIRECTION ( 'NONE',  ( 1.000000000000000000, 0.0000000000000000000, 0.0000000000000000000 ) ) ;
#99 = DIRECTION ( 'NONE',  ( 1.000000000000000000, 0.0000000000000000000, 0.0000000000000000000 ) ) ;
#100 = CARTESIAN_POINT ( 'NONE',  ( 0.0000000000000000000, 0.0000000000000000000, 0.0000000000000000000 ) ) ;
#101 = DIRECTION ( 'NONE',  ( 0.0000000000000000000, 0.0000000000000000000, -1.000000000000000000 ) ) ;
#102 = LOCAL_TIME ( 8, 22, 2.000000000000000000, #68 ) ;
#103 = EDGE_CURVE ( 'NONE', #154, #163, #104, .T. ) ;
#104 = CIRCLE ( 'NONE', #59, 20.00000000000000000 ) ;
#105 = PERSON ( 'UNSPECIFIED', 'UNSPECIFIED', 'UNSPECIFIED', ('UNSPECIFIED'), ('UNSPECIFIED'), ('UNSPECIFIED') ) ;
#106 = ADVANCED_BREP_SHAPE_REPRESENTATION ( 'Web Model 68739', ( #46, #10 ), #153 ) ;
#107 = AXIS2_PLACEMENT_3D ( 'NONE', #53, #77, #29 ) ;
#108 = COORDINATED_UNIVERSAL_TIME_OFFSET ( 5, 0, .BEHIND. ) ;
#109 = PRODUCT_DEFINITION_FORMATION_WITH_SPECIFIED_SOURCE ( 'ANY', '', #91, .NOT_KNOWN. ) ;
#110 = PERSON_AND_ORGANIZATION ( #105, #17 ) ;
#111 = EDGE_LOOP ( 'NONE', ( #167, #84, #123, #19 ) ) ;
#112 = CIRCLE ( 'NONE', #87, 20.00000000000000000 ) ;
#113 = EDGE_CURVE ( 'NONE', #169, #57, #112, .T. ) ;
#114 = SECURITY_CLASSIFICATION ( '', '', #16 ) ;
#115 = COORDINATED_UNIVERSAL_TIME_OFFSET ( 5, 0, .BEHIND. ) ;
#116 = CARTESIAN_POINT ( 'NONE',  ( 0.0000000000000000000, 0.0000000000000000000, 0.0000000000000000000 ) ) ;
#117 = DIRECTION ( 'NONE',  ( 0.0000000000000000000, 0.0000000000000000000, -1.000000000000000000 ) ) ;
#118 = PERSON_AND_ORGANIZATION_ROLE ( 'design_supplier' ) ;
#119 = ORIENTED_EDGE ( 'NONE', *, *, #138, .T. ) ;
#120 = LINE ( 'NONE', #78, #85 ) ;
#121 = DIRECTION ( 'NONE',  ( -1.000000000000000000, -0.0000000000000000000, -0.0000000000000000000 ) ) ;
#122 = PRODUCT_RELATED_PRODUCT_CATEGORY ( 'detail', '', ( #91 ) ) ;
#123 = ORIENTED_EDGE ( 'NONE', *, *, #14, .T. ) ;
#124 = DATE_AND_TIME ( #24, #58 ) ;
#125 = CYLINDRICAL_SURFACE ( 'NONE', #25, 20.00000000000000000 ) ;
#126 = COORDINATED_UNIVERSAL_TIME_OFFSET ( 5, 0, .BEHIND. ) ;
#127 = CLOSED_SHELL ( 'NONE', ( #22, #72, #171, #50 ) ) ;
#128 = CALENDAR_DATE ( 2017, 1, 2 ) ;
#129 = DIRECTION ( 'NONE',  ( -1.000000000000000000, -0.0000000000000000000, -0.0000000000000000000 ) ) ;
#130 = ORIENTED_EDGE ( 'NONE', *, *, #146, .F. ) ;
#131 = APPROVAL_STATUS ( 'not_yet_approved' ) ;
#132 = APPROVAL_PERSON_ORGANIZATION ( #172, #62, #41 ) ;
#133 = CARTESIAN_POINT ( 'NONE',  ( 4.000000000000000000, 0.0000000000000000000, 20.00000000000000000 ) ) ;
#134 = DATE_TIME_ROLE ( 'creation_date' ) ;
#135 =( NAMED_UNIT ( * ) PLANE_ANGLE_UNIT ( ) SI_UNIT ( $, .RADIAN. ) );
#136 = EDGE_LOOP ( 'NONE', ( #20, #60 ) ) ;
#137 = CC_DESIGN_PERSON_AND_ORGANIZATION_ASSIGNMENT ( #150, #148, ( #114 ) ) ;
#138 = EDGE_CURVE ( 'NONE', #163, #154, #6, .T. ) ;
#139 = PRODUCT_DEFINITION_SHAPE ( 'NONE', 'NONE',  #74 ) ;
#140 = APPROVAL_PERSON_ORGANIZATION ( #142, #151, #28 ) ;
#141 = ORIENTED_EDGE ( 'NONE', *, *, #103, .F. ) ;
#142 = PERSON_AND_ORGANIZATION ( #105, #17 ) ;
#143 = EDGE_CURVE ( 'NONE', #57, #163, #81, .T. ) ;
#144 = CC_DESIGN_DATE_AND_TIME_ASSIGNMENT ( #94, #96, ( #114 ) ) ;
#145 = DIRECTION ( 'NONE',  ( 1.000000000000000000, 0.0000000000000000000, 0.0000000000000000000 ) ) ;
#146 = EDGE_CURVE ( 'NONE', #57, #169, #12, .T. ) ;
#147 = APPROVAL_DATE_TIME ( #11, #62 ) ;
#148 = PERSON_AND_ORGANIZATION_ROLE ( 'classification_officer' ) ;
#149 = CARTESIAN_POINT ( 'NONE',  ( 4.000000000000000000, 2.449293598294706500E-015, -20.00000000000000000 ) ) ;
#150 = PERSON_AND_ORGANIZATION ( #105, #17 ) ;
#151 = APPROVAL ( #86, 'UNSPECIFIED' ) ;
#152 = EDGE_LOOP ( 'NONE', ( #130, #27, #119, #83 ) ) ;
#153 =( GEOMETRIC_REPRESENTATION_CONTEXT ( 3 ) GLOBAL_UNCERTAINTY_ASSIGNED_CONTEXT ( ( #97 ) ) GLOBAL_UNIT_ASSIGNED_CONTEXT ( ( #155, #135, #159 ) ) REPRESENTATION_CONTEXT ( 'NONE', 'WORKASPACE' ) );
#154 = VERTEX_POINT ( 'NONE', #55 ) ;
#155 =( LENGTH_UNIT ( ) NAMED_UNIT ( * ) SI_UNIT ( .MILLI., .METRE. ) );
#156 = APPLICATION_PROTOCOL_DEFINITION ( 'international standard', 'config_control_design', 1994, #1 ) ;
#157 = DIRECTION ( 'NONE',  ( 1.000000000000000000, 0.0000000000000000000, 0.0000000000000000000 ) ) ;
#158 = APPROVAL_PERSON_ORGANIZATION ( #165, #166, #175 ) ;
#159 =( NAMED_UNIT ( * ) SI_UNIT ( $, .STERADIAN. ) SOLID_ANGLE_UNIT ( ) );
#160 = CC_DESIGN_PERSON_AND_ORGANIZATION_ASSIGNMENT ( #35, #64, ( #91 ) ) ;
#161 = CARTESIAN_POINT ( 'NONE',  ( 4.000000000000000000, 2.449293598294706500E-015, -20.00000000000000000 ) ) ;
#162 = DIRECTION ( 'NONE',  ( 0.0000000000000000000, 0.0000000000000000000, -1.000000000000000000 ) ) ;
#163 = VERTEX_POINT ( 'NONE', #66 ) ;
#164 = DIRECTION ( 'NONE',  ( -1.000000000000000000, -0.0000000000000000000, -0.0000000000000000000 ) ) ;
#165 = PERSON_AND_ORGANIZATION ( #105, #17 ) ;
#166 = APPROVAL ( #131, 'UNSPECIFIED' ) ;
#167 = ORIENTED_EDGE ( 'NONE', *, *, #143, .F. ) ;
#168 = CYLINDRICAL_SURFACE ( 'NONE', #65, 20.00000000000000000 ) ;
#169 = VERTEX_POINT ( 'NONE', #133 ) ;
#170 = CC_DESIGN_APPROVAL ( #166, ( #109 ) ) ;
#171 = ADVANCED_FACE ( 'NONE', ( #40 ), #3, .T. ) ;
#172 = PERSON_AND_ORGANIZATION ( #105, #17 ) ;
#173 = CC_DESIGN_APPROVAL ( #62, ( #74 ) ) ;
#174 = APPLICATION_PROTOCOL_DEFINITION ( 'international standard', 'config_control_design', 1994, #89 ) ;
#175 = APPROVAL_ROLE ( '' ) ;
ENDSEC;
END-ISO-10303-21;
