ISO-10303-21;
HEADER;
FILE_DESCRIPTION (( 'STEP AP203' ),
    '1' );
FILE_NAME ('Web Model 45567_21013.step',
    '2022-03-15T17:14:18',
    ( '' ),
    ( '' ),
    'SwSTEP 2.0',
    'SolidWorks 2021',
    '' );
FILE_SCHEMA (( 'CONFIG_CONTROL_DESIGN' ));
ENDSEC;

DATA;
#1 = VERTEX_POINT ( 'NONE', #130 ) ;
#2 = CALENDAR_DATE ( 2022, 15, 3 ) ;
#3 = CARTESIAN_POINT ( 'NONE',  ( 3.175000000000001155, 3.888253587292847561E-16, 1.000000000000000000 ) ) ;
#4 = APPROVAL ( #132, 'UNSPECIFIED' ) ;
#5 = ORIENTED_EDGE ( 'NONE', *, *, #136, .T. ) ;
#6 = SECURITY_CLASSIFICATION ( '', '', #127 ) ;
#7 = CARTESIAN_POINT ( 'NONE',  ( 0.000000000000000000, 0.000000000000000000, 1.000000000000000000 ) ) ;
#8 =( NAMED_UNIT ( * ) PLANE_ANGLE_UNIT ( ) SI_UNIT ( $, .RADIAN. ) );
#9 = CARTESIAN_POINT ( 'NONE',  ( 0.000000000000000000, 0.000000000000000000, 0.000000000000000000 ) ) ;
#10 = CLOSED_SHELL ( 'NONE', ( #160, #103, #119, #49 ) ) ;
#11 = APPROVAL ( #138, 'UNSPECIFIED' ) ;
#12 = APPLICATION_CONTEXT ( 'configuration controlled 3d designs of mechanical parts and assemblies' ) ;
#13 = ORIENTED_EDGE ( 'NONE', *, *, #79, .T. ) ;
#14 = CARTESIAN_POINT ( 'NONE',  ( -3.175000000000001155, 0.000000000000000000, 1.000000000000000000 ) ) ;
#15 = ORIENTED_EDGE ( 'NONE', *, *, #27, .T. ) ;
#16 = DIRECTION ( 'NONE',  ( 1.000000000000000000, 0.000000000000000000, 0.000000000000000000 ) ) ;
#17 = DIRECTION ( 'NONE',  ( -1.000000000000000000, 0.000000000000000000, 0.000000000000000000 ) ) ;
#18 = APPROVAL_ROLE ( '' ) ;
#19 = DIRECTION ( 'NONE',  ( 1.000000000000000000, 0.000000000000000000, 0.000000000000000000 ) ) ;
#20 = APPLICATION_PROTOCOL_DEFINITION ( 'international standard', 'config_control_design', 1994, #12 ) ;
#21 = MECHANICAL_CONTEXT ( 'NONE', #12, 'mechanical' ) ;
#22 = SHAPE_DEFINITION_REPRESENTATION ( #139, #82 ) ;
#23 = APPROVAL_ROLE ( '' ) ;
#24 = EDGE_CURVE ( 'NONE', #68, #58, #165, .T. ) ;
#25 = CC_DESIGN_SECURITY_CLASSIFICATION ( #6, ( #43 ) ) ;
#26 = LINE ( 'NONE', #3, #125 ) ;
#27 = EDGE_CURVE ( 'NONE', #72, #1, #26, .T. ) ;
#28 = APPROVAL_PERSON_ORGANIZATION ( #67, #122, #18 ) ;
#29 = CC_DESIGN_DATE_AND_TIME_ASSIGNMENT ( #164, #148, ( #98 ) ) ;
#30 = CC_DESIGN_PERSON_AND_ORGANIZATION_ASSIGNMENT ( #163, #40, ( #6 ) ) ;
#31 = CARTESIAN_POINT ( 'NONE',  ( 0.000000000000000000, 0.000000000000000000, 1.000000000000000000 ) ) ;
#32 = DATE_AND_TIME ( #108, #128 ) ;
#33 = APPROVAL_PERSON_ORGANIZATION ( #152, #11, #23 ) ;
#34 = LOCAL_TIME ( 13, 14, 18.00000000000000000, #99 ) ;
#35 = PERSON_AND_ORGANIZATION ( #88, #105 ) ;
#36 = DIRECTION ( 'NONE',  ( 0.000000000000000000, 0.000000000000000000, 1.000000000000000000 ) ) ;
#37 = CIRCLE ( 'NONE', #84, 3.175000000000001155 ) ;
#38 = APPROVAL_DATE_TIME ( #170, #4 ) ;
#39 = CYLINDRICAL_SURFACE ( 'NONE', #66, 3.175000000000001155 ) ;
#40 = PERSON_AND_ORGANIZATION_ROLE ( 'classification_officer' ) ;
#41 = APPLICATION_PROTOCOL_DEFINITION ( 'international standard', 'config_control_design', 1994, #44 ) ;
#42 = DIRECTION ( 'NONE',  ( 0.000000000000000000, 0.000000000000000000, 1.000000000000000000 ) ) ;
#43 = PRODUCT_DEFINITION_FORMATION_WITH_SPECIFIED_SOURCE ( 'ANY', '', #62, .NOT_KNOWN. ) ;
#44 = APPLICATION_CONTEXT ( 'configuration controlled 3d designs of mechanical parts and assemblies' ) ;
#45 = CC_DESIGN_APPROVAL ( #122, ( #6 ) ) ;
#46 = PERSON_AND_ORGANIZATION_ROLE ( 'creator' ) ;
#47 = ORIENTED_EDGE ( 'NONE', *, *, #151, .F. ) ;
#48 = DIRECTION ( 'NONE',  ( -0.000000000000000000, -0.000000000000000000, -1.000000000000000000 ) ) ;
#49 = ADVANCED_FACE ( 'NONE', ( #50 ), #100, .F. ) ;
#50 = FACE_OUTER_BOUND ( 'NONE', #146, .T. ) ;
#51 = DIRECTION ( 'NONE',  ( 0.000000000000000000, 0.000000000000000000, 1.000000000000000000 ) ) ;
#52 = FACE_OUTER_BOUND ( 'NONE', #131, .T. ) ;
#53 = LOCAL_TIME ( 13, 14, 18.00000000000000000, #87 ) ;
#54 = CALENDAR_DATE ( 2022, 15, 3 ) ;
#55 = APPROVAL_STATUS ( 'not_yet_approved' ) ;
#56 = AXIS2_PLACEMENT_3D ( 'NONE', #31, #51, #95 ) ;
#57 = AXIS2_PLACEMENT_3D ( 'NONE', #64, #141, #17 ) ;
#58 = VERTEX_POINT ( 'NONE', #65 ) ;
#59 = ORIENTED_EDGE ( 'NONE', *, *, #93, .T. ) ;
#60 = EDGE_LOOP ( 'NONE', ( #13, #59 ) ) ;
#61 = DIRECTION ( 'NONE',  ( 1.000000000000000000, 0.000000000000000000, -0.000000000000000000 ) ) ;
#62 = PRODUCT ( 'Web Model 45567_21013', 'Web Model 45567_21013', '', ( #21 ) ) ;
#63 = DIRECTION ( 'NONE',  ( 0.000000000000000000, 0.000000000000000000, 1.000000000000000000 ) ) ;
#64 = CARTESIAN_POINT ( 'NONE',  ( 0.000000000000000000, 0.000000000000000000, 1.000000000000000000 ) ) ;
#65 = CARTESIAN_POINT ( 'NONE',  ( -3.175000000000001155, 0.000000000000000000, 0.000000000000000000 ) ) ;
#66 = AXIS2_PLACEMENT_3D ( 'NONE', #153, #172, #157 ) ;
#67 = PERSON_AND_ORGANIZATION ( #88, #105 ) ;
#68 = VERTEX_POINT ( 'NONE', #120 ) ;
#69 = PERSON_AND_ORGANIZATION ( #88, #105 ) ;
#70 =( GEOMETRIC_REPRESENTATION_CONTEXT ( 3 ) GLOBAL_UNCERTAINTY_ASSIGNED_CONTEXT ( ( #123 ) ) GLOBAL_UNIT_ASSIGNED_CONTEXT ( ( #140, #8, #107 ) ) REPRESENTATION_CONTEXT ( 'NONE', 'WORKASPACE' ) );
#71 = PERSON_AND_ORGANIZATION ( #88, #105 ) ;
#72 = VERTEX_POINT ( 'NONE', #106 ) ;
#73 = MANIFOLD_SOLID_BREP ( 'Boss-Extrude1', #10 ) ;
#74 = CYLINDRICAL_SURFACE ( 'NONE', #57, 3.175000000000001155 ) ;
#75 = APPROVAL_DATE_TIME ( #32, #122 ) ;
#76 = DIRECTION ( 'NONE',  ( 0.000000000000000000, 0.000000000000000000, 1.000000000000000000 ) ) ;
#77 = COORDINATED_UNIVERSAL_TIME_OFFSET ( 5, 0, .BEHIND. ) ;
#78 = PLANE ( 'NONE',  #101 ) ;
#79 = EDGE_CURVE ( 'NONE', #68, #72, #118, .T. ) ;
#80 = DIRECTION ( 'NONE',  ( 1.000000000000000000, 0.000000000000000000, -0.000000000000000000 ) ) ;
#81 = AXIS2_PLACEMENT_3D ( 'NONE', #167, #102, #61 ) ;
#82 = ADVANCED_BREP_SHAPE_REPRESENTATION ( 'Web Model 45567_21013', ( #73, #111 ), #70 ) ;
#83 = DATE_AND_TIME ( #117, #53 ) ;
#84 = AXIS2_PLACEMENT_3D ( 'NONE', #9, #36, #90 ) ;
#85 = CC_DESIGN_DATE_AND_TIME_ASSIGNMENT ( #124, #156, ( #6 ) ) ;
#86 = ORIENTED_EDGE ( 'NONE', *, *, #93, .F. ) ;
#87 = COORDINATED_UNIVERSAL_TIME_OFFSET ( 5, 0, .BEHIND. ) ;
#88 = PERSON ( 'UNSPECIFIED', 'UNSPECIFIED', 'UNSPECIFIED', ('UNSPECIFIED'), ('UNSPECIFIED'), ('UNSPECIFIED') ) ;
#89 = FACE_OUTER_BOUND ( 'NONE', #150, .T. ) ;
#90 = DIRECTION ( 'NONE',  ( 1.000000000000000000, 0.000000000000000000, 0.000000000000000000 ) ) ;
#91 = PERSON_AND_ORGANIZATION ( #88, #105 ) ;
#92 = PERSON_AND_ORGANIZATION_ROLE ( 'design_supplier' ) ;
#93 = EDGE_CURVE ( 'NONE', #72, #68, #143, .T. ) ;
#94 = PERSON_AND_ORGANIZATION_ROLE ( 'creator' ) ;
#95 = DIRECTION ( 'NONE',  ( 1.000000000000000000, 0.000000000000000000, 0.000000000000000000 ) ) ;
#96 = CIRCLE ( 'NONE', #175, 3.175000000000001155 ) ;
#97 = PRODUCT_RELATED_PRODUCT_CATEGORY ( 'detail', '', ( #62 ) ) ;
#98 = PRODUCT_DEFINITION ( 'UNKNOWN', '', #43, #162 ) ;
#99 = COORDINATED_UNIVERSAL_TIME_OFFSET ( 5, 0, .BEHIND. ) ;
#100 = PLANE ( 'NONE',  #81 ) ;
#101 = AXIS2_PLACEMENT_3D ( 'NONE', #7, #173, #80 ) ;
#102 = DIRECTION ( 'NONE',  ( 0.000000000000000000, 0.000000000000000000, 1.000000000000000000 ) ) ;
#103 = ADVANCED_FACE ( 'NONE', ( #52 ), #39, .T. ) ;
#104 = CARTESIAN_POINT ( 'NONE',  ( 0.000000000000000000, 0.000000000000000000, 0.000000000000000000 ) ) ;
#105 = ORGANIZATION ( 'UNSPECIFIED', 'UNSPECIFIED', '' ) ;
#106 = CARTESIAN_POINT ( 'NONE',  ( 3.175000000000001155, 3.888253587292847561E-16, 1.000000000000000000 ) ) ;
#107 =( NAMED_UNIT ( * ) SI_UNIT ( $, .STERADIAN. ) SOLID_ANGLE_UNIT ( ) );
#108 = CALENDAR_DATE ( 2022, 15, 3 ) ;
#109 = CARTESIAN_POINT ( 'NONE',  ( 0.000000000000000000, 0.000000000000000000, 0.000000000000000000 ) ) ;
#110 = CC_DESIGN_APPROVAL ( #11, ( #98 ) ) ;
#111 = AXIS2_PLACEMENT_3D ( 'NONE', #109, #42, #144 ) ;
#112 = VECTOR ( 'NONE', #114, 1000.000000000000000 ) ;
#113 = ORIENTED_EDGE ( 'NONE', *, *, #27, .F. ) ;
#114 = DIRECTION ( 'NONE',  ( -0.000000000000000000, -0.000000000000000000, -1.000000000000000000 ) ) ;
#115 = CC_DESIGN_PERSON_AND_ORGANIZATION_ASSIGNMENT ( #91, #94, ( #43 ) ) ;
#116 = ORIENTED_EDGE ( 'NONE', *, *, #79, .F. ) ;
#117 = CALENDAR_DATE ( 2022, 15, 3 ) ;
#118 = CIRCLE ( 'NONE', #56, 3.175000000000001155 ) ;
#119 = ADVANCED_FACE ( 'NONE', ( #155 ), #78, .T. ) ;
#120 = CARTESIAN_POINT ( 'NONE',  ( -3.175000000000001155, 0.000000000000000000, 1.000000000000000000 ) ) ;
#121 = CC_DESIGN_PERSON_AND_ORGANIZATION_ASSIGNMENT ( #161, #92, ( #43 ) ) ;
#122 = APPROVAL ( #55, 'UNSPECIFIED' ) ;
#123 = UNCERTAINTY_MEASURE_WITH_UNIT (LENGTH_MEASURE( 1.000000000000000082E-05 ), #140, 'distance_accuracy_value', 'NONE');
#124 = DATE_AND_TIME ( #142, #145 ) ;
#125 = VECTOR ( 'NONE', #48, 1000.000000000000000 ) ;
#126 = COORDINATED_UNIVERSAL_TIME_OFFSET ( 5, 0, .BEHIND. ) ;
#127 = SECURITY_CLASSIFICATION_LEVEL ( 'unclassified' ) ;
#128 = LOCAL_TIME ( 13, 14, 18.00000000000000000, #126 ) ;
#129 = LOCAL_TIME ( 13, 14, 18.00000000000000000, #77 ) ;
#130 = CARTESIAN_POINT ( 'NONE',  ( 3.175000000000001155, 3.888253587292847561E-16, 0.000000000000000000 ) ) ;
#131 = EDGE_LOOP ( 'NONE', ( #113, #116, #147, #5 ) ) ;
#132 = APPROVAL_STATUS ( 'not_yet_approved' ) ;
#133 = ORIENTED_EDGE ( 'NONE', *, *, #24, .F. ) ;
#134 = PERSON_AND_ORGANIZATION_ROLE ( 'design_owner' ) ;
#135 = ORIENTED_EDGE ( 'NONE', *, *, #136, .F. ) ;
#136 = EDGE_CURVE ( 'NONE', #58, #1, #37, .T. ) ;
#137 = CC_DESIGN_PERSON_AND_ORGANIZATION_ASSIGNMENT ( #71, #134, ( #62 ) ) ;
#138 = APPROVAL_STATUS ( 'not_yet_approved' ) ;
#139 = PRODUCT_DEFINITION_SHAPE ( 'NONE', 'NONE',  #98 ) ;
#140 =( LENGTH_UNIT ( ) NAMED_UNIT ( * ) SI_UNIT ( .MILLI., .METRE. ) );
#141 = DIRECTION ( 'NONE',  ( -0.000000000000000000, -0.000000000000000000, -1.000000000000000000 ) ) ;
#142 = CALENDAR_DATE ( 2022, 15, 3 ) ;
#143 = CIRCLE ( 'NONE', #154, 3.175000000000001155 ) ;
#144 = DIRECTION ( 'NONE',  ( 1.000000000000000000, 0.000000000000000000, 0.000000000000000000 ) ) ;
#145 = LOCAL_TIME ( 13, 14, 18.00000000000000000, #158 ) ;
#146 = EDGE_LOOP ( 'NONE', ( #135, #47 ) ) ;
#147 = ORIENTED_EDGE ( 'NONE', *, *, #24, .T. ) ;
#148 = DATE_TIME_ROLE ( 'creation_date' ) ;
#149 = CC_DESIGN_PERSON_AND_ORGANIZATION_ASSIGNMENT ( #35, #46, ( #98 ) ) ;
#150 = EDGE_LOOP ( 'NONE', ( #86, #15, #169, #133 ) ) ;
#151 = EDGE_CURVE ( 'NONE', #1, #58, #96, .T. ) ;
#152 = PERSON_AND_ORGANIZATION ( #88, #105 ) ;
#153 = CARTESIAN_POINT ( 'NONE',  ( 0.000000000000000000, 0.000000000000000000, 1.000000000000000000 ) ) ;
#154 = AXIS2_PLACEMENT_3D ( 'NONE', #171, #76, #16 ) ;
#155 = FACE_OUTER_BOUND ( 'NONE', #60, .T. ) ;
#156 = DATE_TIME_ROLE ( 'classification_date' ) ;
#157 = DIRECTION ( 'NONE',  ( -1.000000000000000000, 0.000000000000000000, 0.000000000000000000 ) ) ;
#158 = COORDINATED_UNIVERSAL_TIME_OFFSET ( 5, 0, .BEHIND. ) ;
#159 = CC_DESIGN_APPROVAL ( #4, ( #43 ) ) ;
#160 = ADVANCED_FACE ( 'NONE', ( #89 ), #74, .T. ) ;
#161 = PERSON_AND_ORGANIZATION ( #88, #105 ) ;
#162 = DESIGN_CONTEXT ( 'detailed design', #44, 'design' ) ;
#163 = PERSON_AND_ORGANIZATION ( #88, #105 ) ;
#164 = DATE_AND_TIME ( #2, #34 ) ;
#165 = LINE ( 'NONE', #14, #112 ) ;
#166 = APPROVAL_ROLE ( '' ) ;
#167 = CARTESIAN_POINT ( 'NONE',  ( 0.000000000000000000, 0.000000000000000000, 0.000000000000000000 ) ) ;
#168 = APPROVAL_PERSON_ORGANIZATION ( #69, #4, #166 ) ;
#169 = ORIENTED_EDGE ( 'NONE', *, *, #151, .T. ) ;
#170 = DATE_AND_TIME ( #54, #129 ) ;
#171 = CARTESIAN_POINT ( 'NONE',  ( 0.000000000000000000, 0.000000000000000000, 1.000000000000000000 ) ) ;
#172 = DIRECTION ( 'NONE',  ( -0.000000000000000000, -0.000000000000000000, -1.000000000000000000 ) ) ;
#173 = DIRECTION ( 'NONE',  ( 0.000000000000000000, 0.000000000000000000, 1.000000000000000000 ) ) ;
#174 = APPROVAL_DATE_TIME ( #83, #11 ) ;
#175 = AXIS2_PLACEMENT_3D ( 'NONE', #104, #63, #19 ) ;
ENDSEC;
END-ISO-10303-21;
