ISO-10303-21;
HEADER;
FILE_DESCRIPTION (( 'STEP AP203' ),
    '1' );
FILE_NAME ('Web Model 46604_45317.step',
    '2017-04-10T15:57:56',
    ( '' ),
    ( '' ),
    'SwSTEP 2.0',
    'SolidWorks 2016',
    '' );
FILE_SCHEMA (( 'CONFIG_CONTROL_DESIGN' ));
ENDSEC;

DATA;
#1 = APPLICATION_PROTOCOL_DEFINITION ( 'international standard', 'config_control_design', 1994, #203 ) ;
#2 = DIRECTION ( 'NONE',  ( -1.000000000000000000, 0.0000000000000000000, -0.0000000000000000000 ) ) ;
#3 = AXIS2_PLACEMENT_3D ( 'NONE', #221, #26, #178 ) ;
#4 = CC_DESIGN_DATE_AND_TIME_ASSIGNMENT ( #44, #114, ( #96 ) ) ;
#5 = DATE_AND_TIME ( #220, #35 ) ;
#6 = EDGE_CURVE ( 'NONE', #111, #41, #10, .T. ) ;
#7 = APPROVAL_DATE_TIME ( #149, #109 ) ;
#8 = CARTESIAN_POINT ( 'NONE',  ( 0.0000000000000000000, 0.0000000000000000000, -0.5000000000000000000 ) ) ;
#9 = PERSON_AND_ORGANIZATION_ROLE ( 'design_supplier' ) ;
#10 = LINE ( 'NONE', #91, #132 ) ;
#11 = EDGE_LOOP ( 'NONE', ( #177, #143, #95, #40 ) ) ;
#12 = PERSON_AND_ORGANIZATION ( #182, #31 ) ;
#13 =( GEOMETRIC_REPRESENTATION_CONTEXT ( 3 ) GLOBAL_UNCERTAINTY_ASSIGNED_CONTEXT ( ( #210 ) ) GLOBAL_UNIT_ASSIGNED_CONTEXT ( ( #138, #116, #22 ) ) REPRESENTATION_CONTEXT ( 'NONE', 'WORKASPACE' ) );
#14 = CARTESIAN_POINT ( 'NONE',  ( 6.249999999999998200, 8.749999999999998200, 0.5000000000000000000 ) ) ;
#15 = PRODUCT_DEFINITION_FORMATION_WITH_SPECIFIED_SOURCE ( 'ANY', '', #226, .NOT_KNOWN. ) ;
#16 = APPROVAL_ROLE ( '' ) ;
#17 = EDGE_CURVE ( 'NONE', #172, #122, #180, .T. ) ;
#18 = ORIENTED_EDGE ( 'NONE', *, *, #217, .T. ) ;
#19 = FACE_OUTER_BOUND ( 'NONE', #222, .T. ) ;
#20 = LOCAL_TIME ( 11, 57, 56.00000000000000000, #228 ) ;
#21 = CARTESIAN_POINT ( 'NONE',  ( 6.249999999999998200, -8.750000000000001800, -0.5000000000000000000 ) ) ;
#22 =( NAMED_UNIT ( * ) SI_UNIT ( $, .STERADIAN. ) SOLID_ANGLE_UNIT ( ) );
#23 = AXIS2_PLACEMENT_3D ( 'NONE', #32, #173, #78 ) ;
#24 = APPROVAL ( #53, 'UNSPECIFIED' ) ;
#25 = EDGE_CURVE ( 'NONE', #122, #187, #66, .T. ) ;
#26 = DIRECTION ( 'NONE',  ( -1.000000000000000000, 0.0000000000000000000, 0.0000000000000000000 ) ) ;
#27 = CARTESIAN_POINT ( 'NONE',  ( -6.250000000000001800, -8.750000000000001800, 0.5000000000000000000 ) ) ;
#28 = ADVANCED_FACE ( 'NONE', ( #103 ), #29, .F. ) ;
#29 = PLANE ( 'NONE',  #75 ) ;
#30 = PERSON_AND_ORGANIZATION ( #182, #31 ) ;
#31 = ORGANIZATION ( 'UNSPECIFIED', 'UNSPECIFIED', '' ) ;
#32 = CARTESIAN_POINT ( 'NONE',  ( 0.0000000000000000000, 0.0000000000000000000, 0.5000000000000000000 ) ) ;
#33 = LINE ( 'NONE', #60, #153 ) ;
#34 = VERTEX_POINT ( 'NONE', #92 ) ;
#35 = LOCAL_TIME ( 11, 57, 56.00000000000000000, #50 ) ;
#36 = CARTESIAN_POINT ( 'NONE',  ( -6.250000000000001800, 8.749999999999998200, 0.5000000000000000000 ) ) ;
#37 = CC_DESIGN_APPROVAL ( #24, ( #15 ) ) ;
#38 = EDGE_CURVE ( 'NONE', #34, #202, #152, .T. ) ;
#39 = EDGE_LOOP ( 'NONE', ( #148, #193, #58, #212 ) ) ;
#40 = ORIENTED_EDGE ( 'NONE', *, *, #217, .F. ) ;
#41 = VERTEX_POINT ( 'NONE', #216 ) ;
#42 = FACE_OUTER_BOUND ( 'NONE', #39, .T. ) ;
#43 = ADVANCED_FACE ( 'NONE', ( #42 ), #158, .F. ) ;
#44 = DATE_AND_TIME ( #80, #237 ) ;
#45 = APPROVAL_PERSON_ORGANIZATION ( #164, #109, #142 ) ;
#46 = CC_DESIGN_PERSON_AND_ORGANIZATION_ASSIGNMENT ( #125, #145, ( #15 ) ) ;
#47 = PERSON_AND_ORGANIZATION_ROLE ( 'classification_officer' ) ;
#48 = CARTESIAN_POINT ( 'NONE',  ( -6.250000000000001800, -8.750000000000001800, 0.5000000000000000000 ) ) ;
#49 = APPROVAL_DATE_TIME ( #5, #200 ) ;
#50 = COORDINATED_UNIVERSAL_TIME_OFFSET ( 5, 0, .BEHIND. ) ;
#51 = FACE_OUTER_BOUND ( 'NONE', #207, .T. ) ;
#52 = FACE_OUTER_BOUND ( 'NONE', #11, .T. ) ;
#53 = APPROVAL_STATUS ( 'not_yet_approved' ) ;
#54 = ORIENTED_EDGE ( 'NONE', *, *, #175, .F. ) ;
#55 = ORIENTED_EDGE ( 'NONE', *, *, #166, .F. ) ;
#56 = CARTESIAN_POINT ( 'NONE',  ( -6.250000000000001800, -8.750000000000001800, 0.5000000000000000000 ) ) ;
#57 = SECURITY_CLASSIFICATION_LEVEL ( 'unclassified' ) ;
#58 = ORIENTED_EDGE ( 'NONE', *, *, #176, .F. ) ;
#59 = VECTOR ( 'NONE', #235, 1000.000000000000000 ) ;
#60 = CARTESIAN_POINT ( 'NONE',  ( -6.250000000000001800, 8.749999999999998200, 0.5000000000000000000 ) ) ;
#61 = CC_DESIGN_PERSON_AND_ORGANIZATION_ASSIGNMENT ( #104, #9, ( #15 ) ) ;
#62 = DIRECTION ( 'NONE',  ( 1.000000000000000000, 0.0000000000000000000, 0.0000000000000000000 ) ) ;
#63 = CLOSED_SHELL ( 'NONE', ( #191, #117, #28, #43, #209, #101 ) ) ;
#64 = PRODUCT_DEFINITION_SHAPE ( 'NONE', 'NONE',  #96 ) ;
#65 = PERSON_AND_ORGANIZATION_ROLE ( 'design_owner' ) ;
#66 = LINE ( 'NONE', #21, #155 ) ;
#67 = EDGE_LOOP ( 'NONE', ( #70, #205, #110, #83 ) ) ;
#68 = CALENDAR_DATE ( 2017, 10, 4 ) ;
#69 = LINE ( 'NONE', #154, #59 ) ;
#70 = ORIENTED_EDGE ( 'NONE', *, *, #232, .T. ) ;
#71 = AXIS2_PLACEMENT_3D ( 'NONE', #123, #82, #62 ) ;
#72 = SECURITY_CLASSIFICATION ( '', '', #57 ) ;
#73 = VECTOR ( 'NONE', #169, 1000.000000000000000 ) ;
#74 = CARTESIAN_POINT ( 'NONE',  ( -6.250000000000001800, -8.750000000000001800, 0.5000000000000000000 ) ) ;
#75 = AXIS2_PLACEMENT_3D ( 'NONE', #48, #144, #231 ) ;
#76 = PLANE ( 'NONE',  #3 ) ;
#77 = DIRECTION ( 'NONE',  ( 0.0000000000000000000, -0.0000000000000000000, 1.000000000000000000 ) ) ;
#78 = DIRECTION ( 'NONE',  ( -1.000000000000000000, 0.0000000000000000000, -0.0000000000000000000 ) ) ;
#79 = ORIENTED_EDGE ( 'NONE', *, *, #166, .T. ) ;
#80 = CALENDAR_DATE ( 2017, 10, 4 ) ;
#81 = ORIENTED_EDGE ( 'NONE', *, *, #232, .F. ) ;
#82 = DIRECTION ( 'NONE',  ( 0.0000000000000000000, 0.0000000000000000000, 1.000000000000000000 ) ) ;
#83 = ORIENTED_EDGE ( 'NONE', *, *, #176, .T. ) ;
#84 = FACE_OUTER_BOUND ( 'NONE', #67, .T. ) ;
#85 = LINE ( 'NONE', #27, #136 ) ;
#86 = CC_DESIGN_PERSON_AND_ORGANIZATION_ASSIGNMENT ( #100, #65, ( #226 ) ) ;
#87 = DATE_TIME_ROLE ( 'classification_date' ) ;
#88 = CC_DESIGN_PERSON_AND_ORGANIZATION_ASSIGNMENT ( #30, #47, ( #72 ) ) ;
#89 = VECTOR ( 'NONE', #134, 1000.000000000000000 ) ;
#90 = DIRECTION ( 'NONE',  ( 0.0000000000000000000, -0.0000000000000000000, -1.000000000000000000 ) ) ;
#91 = CARTESIAN_POINT ( 'NONE',  ( -6.250000000000001800, -8.750000000000001800, 0.5000000000000000000 ) ) ;
#92 = CARTESIAN_POINT ( 'NONE',  ( -6.250000000000001800, 8.749999999999998200, -0.5000000000000000000 ) ) ;
#93 = CARTESIAN_POINT ( 'NONE',  ( 6.249999999999998200, -8.750000000000001800, 0.5000000000000000000 ) ) ;
#94 = MECHANICAL_CONTEXT ( 'NONE', #203, 'mechanical' ) ;
#95 = ORIENTED_EDGE ( 'NONE', *, *, #38, .F. ) ;
#96 = PRODUCT_DEFINITION ( 'UNKNOWN', '', #15, #196 ) ;
#97 = CC_DESIGN_DATE_AND_TIME_ASSIGNMENT ( #124, #87, ( #72 ) ) ;
#98 = DIRECTION ( 'NONE',  ( 0.0000000000000000000, 1.000000000000000000, 0.0000000000000000000 ) ) ;
#99 = LINE ( 'NONE', #102, #113 ) ;
#100 = PERSON_AND_ORGANIZATION ( #182, #31 ) ;
#101 = ADVANCED_FACE ( 'NONE', ( #52 ), #157, .T. ) ;
#102 = CARTESIAN_POINT ( 'NONE',  ( -6.250000000000001800, 8.749999999999998200, -0.5000000000000000000 ) ) ;
#103 = FACE_OUTER_BOUND ( 'NONE', #159, .T. ) ;
#104 = PERSON_AND_ORGANIZATION ( #182, #31 ) ;
#105 = CARTESIAN_POINT ( 'NONE',  ( -6.250000000000001800, -8.750000000000001800, -0.5000000000000000000 ) ) ;
#106 = LINE ( 'NONE', #36, #126 ) ;
#107 = APPROVAL_STATUS ( 'not_yet_approved' ) ;
#108 = VECTOR ( 'NONE', #174, 1000.000000000000000 ) ;
#109 = APPROVAL ( #183, 'UNSPECIFIED' ) ;
#110 = ORIENTED_EDGE ( 'NONE', *, *, #6, .T. ) ;
#111 = VERTEX_POINT ( 'NONE', #186 ) ;
#112 = ORIENTED_EDGE ( 'NONE', *, *, #17, .T. ) ;
#113 = VECTOR ( 'NONE', #219, 1000.000000000000000 ) ;
#114 = DATE_TIME_ROLE ( 'creation_date' ) ;
#115 = APPLICATION_CONTEXT ( 'configuration controlled 3d designs of mechanical parts and assemblies' ) ;
#116 =( NAMED_UNIT ( * ) PLANE_ANGLE_UNIT ( ) SI_UNIT ( $, .RADIAN. ) );
#117 = ADVANCED_FACE ( 'NONE', ( #19 ), #127, .F. ) ;
#118 = APPROVAL_PERSON_ORGANIZATION ( #199, #200, #161 ) ;
#119 = CC_DESIGN_APPROVAL ( #109, ( #72 ) ) ;
#120 = CARTESIAN_POINT ( 'NONE',  ( 6.249999999999998200, -8.750000000000001800, 0.5000000000000000000 ) ) ;
#121 = CARTESIAN_POINT ( 'NONE',  ( -6.250000000000001800, 8.749999999999998200, 0.5000000000000000000 ) ) ;
#122 = VERTEX_POINT ( 'NONE', #192 ) ;
#123 = CARTESIAN_POINT ( 'NONE',  ( 0.0000000000000000000, 0.0000000000000000000, 0.0000000000000000000 ) ) ;
#124 = DATE_AND_TIME ( #141, #20 ) ;
#125 = PERSON_AND_ORGANIZATION ( #182, #31 ) ;
#126 = VECTOR ( 'NONE', #137, 1000.000000000000000 ) ;
#127 = PLANE ( 'NONE',  #214 ) ;
#128 = ADVANCED_BREP_SHAPE_REPRESENTATION ( 'Web Model 46604_45317', ( #204, #71 ), #13 ) ;
#129 = CC_DESIGN_SECURITY_CLASSIFICATION ( #72, ( #15 ) ) ;
#130 = DIRECTION ( 'NONE',  ( 0.0000000000000000000, 0.0000000000000000000, -1.000000000000000000 ) ) ;
#131 = COORDINATED_UNIVERSAL_TIME_OFFSET ( 5, 0, .BEHIND. ) ;
#132 = VECTOR ( 'NONE', #229, 1000.000000000000000 ) ;
#133 = APPLICATION_PROTOCOL_DEFINITION ( 'international standard', 'config_control_design', 1994, #115 ) ;
#134 = DIRECTION ( 'NONE',  ( 0.0000000000000000000, 1.000000000000000000, 0.0000000000000000000 ) ) ;
#135 = ORIENTED_EDGE ( 'NONE', *, *, #201, .F. ) ;
#136 = VECTOR ( 'NONE', #146, 1000.000000000000000 ) ;
#137 = DIRECTION ( 'NONE',  ( -0.0000000000000000000, -0.0000000000000000000, -1.000000000000000000 ) ) ;
#138 =( LENGTH_UNIT ( ) NAMED_UNIT ( * ) SI_UNIT ( .MILLI., .METRE. ) );
#139 = CALENDAR_DATE ( 2017, 10, 4 ) ;
#140 = COORDINATED_UNIVERSAL_TIME_OFFSET ( 5, 0, .BEHIND. ) ;
#141 = CALENDAR_DATE ( 2017, 10, 4 ) ;
#142 = APPROVAL_ROLE ( '' ) ;
#143 = ORIENTED_EDGE ( 'NONE', *, *, #147, .F. ) ;
#144 = DIRECTION ( 'NONE',  ( 1.000000000000000000, 0.0000000000000000000, 0.0000000000000000000 ) ) ;
#145 = PERSON_AND_ORGANIZATION_ROLE ( 'creator' ) ;
#146 = DIRECTION ( 'NONE',  ( -0.0000000000000000000, -0.0000000000000000000, -1.000000000000000000 ) ) ;
#147 = EDGE_CURVE ( 'NONE', #202, #122, #69, .T. ) ;
#148 = ORIENTED_EDGE ( 'NONE', *, *, #147, .T. ) ;
#149 = DATE_AND_TIME ( #139, #184 ) ;
#150 = ORIENTED_EDGE ( 'NONE', *, *, #190, .T. ) ;
#151 = CARTESIAN_POINT ( 'NONE',  ( 6.249999999999998200, -8.750000000000001800, 0.5000000000000000000 ) ) ;
#152 = LINE ( 'NONE', #211, #185 ) ;
#153 = VECTOR ( 'NONE', #171, 1000.000000000000000 ) ;
#154 = CARTESIAN_POINT ( 'NONE',  ( -6.250000000000001800, -8.750000000000001800, -0.5000000000000000000 ) ) ;
#155 = VECTOR ( 'NONE', #167, 1000.000000000000000 ) ;
#156 = DIRECTION ( 'NONE',  ( -0.0000000000000000000, -0.0000000000000000000, -1.000000000000000000 ) ) ;
#157 = PLANE ( 'NONE',  #188 ) ;
#158 = PLANE ( 'NONE',  #165 ) ;
#159 = EDGE_LOOP ( 'NONE', ( #168, #135, #197, #150 ) ) ;
#160 = ORIENTED_EDGE ( 'NONE', *, *, #25, .T. ) ;
#161 = APPROVAL_ROLE ( '' ) ;
#162 = VERTEX_POINT ( 'NONE', #224 ) ;
#163 = VECTOR ( 'NONE', #156, 1000.000000000000000 ) ;
#164 = PERSON_AND_ORGANIZATION ( #182, #31 ) ;
#165 = AXIS2_PLACEMENT_3D ( 'NONE', #56, #98, #77 ) ;
#166 = EDGE_CURVE ( 'NONE', #162, #187, #195, .T. ) ;
#167 = DIRECTION ( 'NONE',  ( 0.0000000000000000000, 1.000000000000000000, 0.0000000000000000000 ) ) ;
#168 = ORIENTED_EDGE ( 'NONE', *, *, #38, .T. ) ;
#169 = DIRECTION ( 'NONE',  ( 1.000000000000000000, 0.0000000000000000000, 0.0000000000000000000 ) ) ;
#170 = PRODUCT_RELATED_PRODUCT_CATEGORY ( 'detail', '', ( #226 ) ) ;
#171 = DIRECTION ( 'NONE',  ( -1.000000000000000000, -0.0000000000000000000, -0.0000000000000000000 ) ) ;
#172 = VERTEX_POINT ( 'NONE', #151 ) ;
#173 = DIRECTION ( 'NONE',  ( 0.0000000000000000000, 0.0000000000000000000, -1.000000000000000000 ) ) ;
#174 = DIRECTION ( 'NONE',  ( -0.0000000000000000000, -0.0000000000000000000, -1.000000000000000000 ) ) ;
#175 = EDGE_CURVE ( 'NONE', #162, #111, #33, .T. ) ;
#176 = EDGE_CURVE ( 'NONE', #41, #172, #206, .T. ) ;
#177 = ORIENTED_EDGE ( 'NONE', *, *, #25, .F. ) ;
#178 = DIRECTION ( 'NONE',  ( 0.0000000000000000000, 0.0000000000000000000, 1.000000000000000000 ) ) ;
#179 = LOCAL_TIME ( 11, 57, 56.00000000000000000, #131 ) ;
#180 = LINE ( 'NONE', #120, #163 ) ;
#181 = DIRECTION ( 'NONE',  ( -0.0000000000000000000, -1.000000000000000000, -0.0000000000000000000 ) ) ;
#182 = PERSON ( 'UNSPECIFIED', 'UNSPECIFIED', 'UNSPECIFIED', ('UNSPECIFIED'), ('UNSPECIFIED'), ('UNSPECIFIED') ) ;
#183 = APPROVAL_STATUS ( 'not_yet_approved' ) ;
#184 = LOCAL_TIME ( 11, 57, 56.00000000000000000, #140 ) ;
#185 = VECTOR ( 'NONE', #181, 1000.000000000000000 ) ;
#186 = CARTESIAN_POINT ( 'NONE',  ( -6.250000000000001800, 8.749999999999998200, 0.5000000000000000000 ) ) ;
#187 = VERTEX_POINT ( 'NONE', #227 ) ;
#188 = AXIS2_PLACEMENT_3D ( 'NONE', #8, #130, #2 ) ;
#189 = SHAPE_DEFINITION_REPRESENTATION ( #64, #128 ) ;
#190 = EDGE_CURVE ( 'NONE', #111, #34, #106, .T. ) ;
#191 = ADVANCED_FACE ( 'NONE', ( #51 ), #76, .F. ) ;
#192 = CARTESIAN_POINT ( 'NONE',  ( 6.249999999999998200, -8.750000000000001800, -0.5000000000000000000 ) ) ;
#193 = ORIENTED_EDGE ( 'NONE', *, *, #17, .F. ) ;
#194 = PERSON_AND_ORGANIZATION ( #182, #31 ) ;
#195 = LINE ( 'NONE', #14, #108 ) ;
#196 = DESIGN_CONTEXT ( 'detailed design', #115, 'design' ) ;
#197 = ORIENTED_EDGE ( 'NONE', *, *, #6, .F. ) ;
#198 = COORDINATED_UNIVERSAL_TIME_OFFSET ( 5, 0, .BEHIND. ) ;
#199 = PERSON_AND_ORGANIZATION ( #182, #31 ) ;
#200 = APPROVAL ( #107, 'UNSPECIFIED' ) ;
#201 = EDGE_CURVE ( 'NONE', #41, #202, #85, .T. ) ;
#202 = VERTEX_POINT ( 'NONE', #105 ) ;
#203 = APPLICATION_CONTEXT ( 'configuration controlled 3d designs of mechanical parts and assemblies' ) ;
#204 = MANIFOLD_SOLID_BREP ( 'Boss-Extrude1', #63 ) ;
#205 = ORIENTED_EDGE ( 'NONE', *, *, #175, .T. ) ;
#206 = LINE ( 'NONE', #74, #73 ) ;
#207 = EDGE_LOOP ( 'NONE', ( #160, #55, #81, #112 ) ) ;
#208 = APPROVAL_PERSON_ORGANIZATION ( #194, #24, #16 ) ;
#209 = ADVANCED_FACE ( 'NONE', ( #84 ), #213, .F. ) ;
#210 = UNCERTAINTY_MEASURE_WITH_UNIT (LENGTH_MEASURE( 1.000000000000000100E-005 ), #138, 'distance_accuracy_value', 'NONE');
#211 = CARTESIAN_POINT ( 'NONE',  ( -6.250000000000001800, -8.750000000000001800, -0.5000000000000000000 ) ) ;
#212 = ORIENTED_EDGE ( 'NONE', *, *, #201, .T. ) ;
#213 = PLANE ( 'NONE',  #23 ) ;
#214 = AXIS2_PLACEMENT_3D ( 'NONE', #121, #233, #90 ) ;
#215 = CC_DESIGN_APPROVAL ( #200, ( #96 ) ) ;
#216 = CARTESIAN_POINT ( 'NONE',  ( -6.250000000000001800, -8.750000000000001800, 0.5000000000000000000 ) ) ;
#217 = EDGE_CURVE ( 'NONE', #187, #34, #99, .T. ) ;
#218 = DATE_AND_TIME ( #68, #179 ) ;
#219 = DIRECTION ( 'NONE',  ( -1.000000000000000000, -0.0000000000000000000, -0.0000000000000000000 ) ) ;
#220 = CALENDAR_DATE ( 2017, 10, 4 ) ;
#221 = CARTESIAN_POINT ( 'NONE',  ( 6.249999999999998200, -8.750000000000001800, 0.5000000000000000000 ) ) ;
#222 = EDGE_LOOP ( 'NONE', ( #18, #223, #54, #79 ) ) ;
#223 = ORIENTED_EDGE ( 'NONE', *, *, #190, .F. ) ;
#224 = CARTESIAN_POINT ( 'NONE',  ( 6.249999999999998200, 8.749999999999998200, 0.5000000000000000000 ) ) ;
#225 = LINE ( 'NONE', #93, #89 ) ;
#226 = PRODUCT ( 'Web Model 46604_45317', 'Web Model 46604_45317', '', ( #94 ) ) ;
#227 = CARTESIAN_POINT ( 'NONE',  ( 6.249999999999998200, 8.749999999999998200, -0.5000000000000000000 ) ) ;
#228 = COORDINATED_UNIVERSAL_TIME_OFFSET ( 5, 0, .BEHIND. ) ;
#229 = DIRECTION ( 'NONE',  ( -0.0000000000000000000, -1.000000000000000000, -0.0000000000000000000 ) ) ;
#230 = CC_DESIGN_PERSON_AND_ORGANIZATION_ASSIGNMENT ( #12, #234, ( #96 ) ) ;
#231 = DIRECTION ( 'NONE',  ( 0.0000000000000000000, 0.0000000000000000000, -1.000000000000000000 ) ) ;
#232 = EDGE_CURVE ( 'NONE', #172, #162, #225, .T. ) ;
#233 = DIRECTION ( 'NONE',  ( 0.0000000000000000000, -1.000000000000000000, 0.0000000000000000000 ) ) ;
#234 = PERSON_AND_ORGANIZATION_ROLE ( 'creator' ) ;
#235 = DIRECTION ( 'NONE',  ( 1.000000000000000000, 0.0000000000000000000, 0.0000000000000000000 ) ) ;
#236 = APPROVAL_DATE_TIME ( #218, #24 ) ;
#237 = LOCAL_TIME ( 11, 57, 56.00000000000000000, #198 ) ;
ENDSEC;
END-ISO-10303-21;
