ISO-10303-21;
HEADER;
FILE_DESCRIPTION (( 'STEP AP203' ),
    '1' );
FILE_NAME ('Web Model 84491_48192.step',
    '2017-05-19T14:59:16',
    ( '' ),
    ( '' ),
    'SwSTEP 2.0',
    'SolidWorks 2016',
    '' );
FILE_SCHEMA (( 'CONFIG_CONTROL_DESIGN' ));
ENDSEC;

DATA;
#1 = CIRCLE ( 'NONE', #175, 25.00000000000000000 ) ;
#2 = CARTESIAN_POINT ( 'NONE',  ( -25.00000000000000000, 0.0000000000000000000, 4.000000000000000000 ) ) ;
#3 = PLANE ( 'NONE',  #94 ) ;
#4 = CARTESIAN_POINT ( 'NONE',  ( 0.0000000000000000000, 0.0000000000000000000, 4.000000000000000000 ) ) ;
#5 = VECTOR ( 'NONE', #40, 1000.000000000000000 ) ;
#6 = LOCAL_TIME ( 10, 59, 16.00000000000000000, #58 ) ;
#7 = CYLINDRICAL_SURFACE ( 'NONE', #112, 25.00000000000000000 ) ;
#8 = PERSON_AND_ORGANIZATION ( #36, #146 ) ;
#9 = CALENDAR_DATE ( 2017, 19, 5 ) ;
#10 = PLANE ( 'NONE',  #120 ) ;
#11 = APPROVAL_DATE_TIME ( #53, #128 ) ;
#12 =( GEOMETRIC_REPRESENTATION_CONTEXT ( 3 ) GLOBAL_UNCERTAINTY_ASSIGNED_CONTEXT ( ( #71 ) ) GLOBAL_UNIT_ASSIGNED_CONTEXT ( ( #161, #162, #126 ) ) REPRESENTATION_CONTEXT ( 'NONE', 'WORKASPACE' ) );
#13 = DIRECTION ( 'NONE',  ( 0.0000000000000000000, 0.0000000000000000000, 1.000000000000000000 ) ) ;
#14 = FACE_OUTER_BOUND ( 'NONE', #59, .T. ) ;
#15 = CARTESIAN_POINT ( 'NONE',  ( 25.00000000000000000, 3.061616997868383000E-015, 0.0000000000000000000 ) ) ;
#16 = APPROVAL_STATUS ( 'not_yet_approved' ) ;
#17 = EDGE_LOOP ( 'NONE', ( #168, #171 ) ) ;
#18 = ADVANCED_FACE ( 'NONE', ( #62 ), #10, .T. ) ;
#19 = EDGE_LOOP ( 'NONE', ( #160, #27, #139, #20 ) ) ;
#20 = ORIENTED_EDGE ( 'NONE', *, *, #21, .T. ) ;
#21 = EDGE_CURVE ( 'NONE', #100, #96, #166, .T. ) ;
#22 = DATE_AND_TIME ( #52, #124 ) ;
#23 = CALENDAR_DATE ( 2017, 19, 5 ) ;
#24 = EDGE_CURVE ( 'NONE', #80, #100, #79, .T. ) ;
#25 = AXIS2_PLACEMENT_3D ( 'NONE', #60, #87, #26 ) ;
#26 = DIRECTION ( 'NONE',  ( 1.000000000000000000, 0.0000000000000000000, 0.0000000000000000000 ) ) ;
#27 = ORIENTED_EDGE ( 'NONE', *, *, #84, .F. ) ;
#28 = DIRECTION ( 'NONE',  ( 0.0000000000000000000, 0.0000000000000000000, 1.000000000000000000 ) ) ;
#29 = LOCAL_TIME ( 10, 59, 16.00000000000000000, #69 ) ;
#30 = CARTESIAN_POINT ( 'NONE',  ( 0.0000000000000000000, 0.0000000000000000000, 0.0000000000000000000 ) ) ;
#31 = EDGE_CURVE ( 'NONE', #50, #80, #131, .T. ) ;
#32 = CALENDAR_DATE ( 2017, 19, 5 ) ;
#33 = DIRECTION ( 'NONE',  ( 0.0000000000000000000, 0.0000000000000000000, 1.000000000000000000 ) ) ;
#34 = PERSON_AND_ORGANIZATION ( #36, #146 ) ;
#35 = EDGE_CURVE ( 'NONE', #50, #96, #174, .T. ) ;
#36 = PERSON ( 'UNSPECIFIED', 'UNSPECIFIED', 'UNSPECIFIED', ('UNSPECIFIED'), ('UNSPECIFIED'), ('UNSPECIFIED') ) ;
#37 = CC_DESIGN_APPROVAL ( #141, ( #109 ) ) ;
#38 = CIRCLE ( 'NONE', #51, 25.00000000000000000 ) ;
#39 = CARTESIAN_POINT ( 'NONE',  ( 25.00000000000000000, 3.061616997868383000E-015, 4.000000000000000000 ) ) ;
#40 = DIRECTION ( 'NONE',  ( -0.0000000000000000000, -0.0000000000000000000, -1.000000000000000000 ) ) ;
#41 = CARTESIAN_POINT ( 'NONE',  ( 25.00000000000000000, 3.061616997868383000E-015, 4.000000000000000000 ) ) ;
#42 = DIRECTION ( 'NONE',  ( -0.0000000000000000000, -0.0000000000000000000, -1.000000000000000000 ) ) ;
#43 = AXIS2_PLACEMENT_3D ( 'NONE', #140, #98, #114 ) ;
#44 = MECHANICAL_CONTEXT ( 'NONE', #144, 'mechanical' ) ;
#45 = APPROVAL_ROLE ( '' ) ;
#46 = LOCAL_TIME ( 10, 59, 16.00000000000000000, #169 ) ;
#47 = APPLICATION_PROTOCOL_DEFINITION ( 'international standard', 'config_control_design', 1994, #144 ) ;
#48 = CC_DESIGN_PERSON_AND_ORGANIZATION_ASSIGNMENT ( #148, #150, ( #56 ) ) ;
#49 = ADVANCED_FACE ( 'NONE', ( #89 ), #3, .F. ) ;
#50 = VERTEX_POINT ( 'NONE', #39 ) ;
#51 = AXIS2_PLACEMENT_3D ( 'NONE', #77, #99, #167 ) ;
#52 = CALENDAR_DATE ( 2017, 19, 5 ) ;
#53 = DATE_AND_TIME ( #125, #6 ) ;
#54 = CC_DESIGN_PERSON_AND_ORGANIZATION_ASSIGNMENT ( #34, #92, ( #82 ) ) ;
#55 = DATE_AND_TIME ( #9, #29 ) ;
#56 = PRODUCT_DEFINITION_FORMATION_WITH_SPECIFIED_SOURCE ( 'ANY', '', #82, .NOT_KNOWN. ) ;
#57 = PERSON_AND_ORGANIZATION ( #36, #146 ) ;
#58 = COORDINATED_UNIVERSAL_TIME_OFFSET ( 5, 0, .BEHIND. ) ;
#59 = EDGE_LOOP ( 'NONE', ( #64, #135, #155, #111 ) ) ;
#60 = CARTESIAN_POINT ( 'NONE',  ( 0.0000000000000000000, 0.0000000000000000000, 0.0000000000000000000 ) ) ;
#61 = SHAPE_DEFINITION_REPRESENTATION ( #173, #116 ) ;
#62 = FACE_OUTER_BOUND ( 'NONE', #86, .T. ) ;
#63 = DATE_TIME_ROLE ( 'creation_date' ) ;
#64 = ORIENTED_EDGE ( 'NONE', *, *, #31, .F. ) ;
#65 = PERSON_AND_ORGANIZATION_ROLE ( 'creator' ) ;
#66 = CC_DESIGN_DATE_AND_TIME_ASSIGNMENT ( #137, #63, ( #109 ) ) ;
#67 = APPLICATION_CONTEXT ( 'configuration controlled 3d designs of mechanical parts and assemblies' ) ;
#68 = PERSON_AND_ORGANIZATION_ROLE ( 'classification_officer' ) ;
#69 = COORDINATED_UNIVERSAL_TIME_OFFSET ( 5, 0, .BEHIND. ) ;
#70 = APPROVAL_ROLE ( '' ) ;
#71 = UNCERTAINTY_MEASURE_WITH_UNIT (LENGTH_MEASURE( 1.000000000000000100E-005 ), #161, 'distance_accuracy_value', 'NONE');
#72 = CC_DESIGN_PERSON_AND_ORGANIZATION_ASSIGNMENT ( #57, #68, ( #106 ) ) ;
#73 = APPROVAL ( #16, 'UNSPECIFIED' ) ;
#74 = DATE_TIME_ROLE ( 'classification_date' ) ;
#75 = CARTESIAN_POINT ( 'NONE',  ( -25.00000000000000000, 0.0000000000000000000, 0.0000000000000000000 ) ) ;
#76 = DATE_AND_TIME ( #32, #165 ) ;
#77 = CARTESIAN_POINT ( 'NONE',  ( 0.0000000000000000000, 0.0000000000000000000, 4.000000000000000000 ) ) ;
#78 = DIRECTION ( 'NONE',  ( 0.0000000000000000000, 0.0000000000000000000, 1.000000000000000000 ) ) ;
#79 = LINE ( 'NONE', #2, #5 ) ;
#80 = VERTEX_POINT ( 'NONE', #149 ) ;
#81 = COORDINATED_UNIVERSAL_TIME_OFFSET ( 5, 0, .BEHIND. ) ;
#82 = PRODUCT ( 'Web Model 84491_48192', 'Web Model 84491_48192', '', ( #44 ) ) ;
#83 = DESIGN_CONTEXT ( 'detailed design', #67, 'design' ) ;
#84 = EDGE_CURVE ( 'NONE', #80, #50, #38, .T. ) ;
#85 = PERSON_AND_ORGANIZATION ( #36, #146 ) ;
#86 = EDGE_LOOP ( 'NONE', ( #132, #122 ) ) ;
#87 = DIRECTION ( 'NONE',  ( 0.0000000000000000000, 0.0000000000000000000, 1.000000000000000000 ) ) ;
#88 = APPROVAL_STATUS ( 'not_yet_approved' ) ;
#89 = FACE_OUTER_BOUND ( 'NONE', #17, .T. ) ;
#90 = SECURITY_CLASSIFICATION_LEVEL ( 'unclassified' ) ;
#91 = CC_DESIGN_APPROVAL ( #73, ( #106 ) ) ;
#92 = PERSON_AND_ORGANIZATION_ROLE ( 'design_owner' ) ;
#93 = APPROVAL_PERSON_ORGANIZATION ( #127, #128, #154 ) ;
#94 = AXIS2_PLACEMENT_3D ( 'NONE', #101, #78, #103 ) ;
#95 = PERSON_AND_ORGANIZATION ( #36, #146 ) ;
#96 = VERTEX_POINT ( 'NONE', #15 ) ;
#97 = DIRECTION ( 'NONE',  ( 1.000000000000000000, 0.0000000000000000000, -0.0000000000000000000 ) ) ;
#98 = DIRECTION ( 'NONE',  ( 0.0000000000000000000, 0.0000000000000000000, 1.000000000000000000 ) ) ;
#99 = DIRECTION ( 'NONE',  ( 0.0000000000000000000, 0.0000000000000000000, 1.000000000000000000 ) ) ;
#100 = VERTEX_POINT ( 'NONE', #75 ) ;
#101 = CARTESIAN_POINT ( 'NONE',  ( 0.0000000000000000000, 0.0000000000000000000, 0.0000000000000000000 ) ) ;
#102 = CARTESIAN_POINT ( 'NONE',  ( 0.0000000000000000000, 0.0000000000000000000, 0.0000000000000000000 ) ) ;
#103 = DIRECTION ( 'NONE',  ( 1.000000000000000000, 0.0000000000000000000, -0.0000000000000000000 ) ) ;
#104 = COORDINATED_UNIVERSAL_TIME_OFFSET ( 5, 0, .BEHIND. ) ;
#105 = DIRECTION ( 'NONE',  ( -0.0000000000000000000, -0.0000000000000000000, -1.000000000000000000 ) ) ;
#106 = SECURITY_CLASSIFICATION ( '', '', #90 ) ;
#107 = ADVANCED_FACE ( 'NONE', ( #152 ), #157, .T. ) ;
#108 = APPROVAL_PERSON_ORGANIZATION ( #8, #141, #45 ) ;
#109 = PRODUCT_DEFINITION ( 'UNKNOWN', '', #56, #83 ) ;
#110 = PERSON_AND_ORGANIZATION ( #36, #146 ) ;
#111 = ORIENTED_EDGE ( 'NONE', *, *, #24, .F. ) ;
#112 = AXIS2_PLACEMENT_3D ( 'NONE', #4, #105, #118 ) ;
#113 = VECTOR ( 'NONE', #42, 1000.000000000000000 ) ;
#114 = DIRECTION ( 'NONE',  ( 1.000000000000000000, 0.0000000000000000000, 0.0000000000000000000 ) ) ;
#115 = CARTESIAN_POINT ( 'NONE',  ( 0.0000000000000000000, 0.0000000000000000000, 4.000000000000000000 ) ) ;
#116 = ADVANCED_BREP_SHAPE_REPRESENTATION ( 'Web Model 84491_48192', ( #136, #170 ), #12 ) ;
#117 = DIRECTION ( 'NONE',  ( -0.0000000000000000000, -0.0000000000000000000, -1.000000000000000000 ) ) ;
#118 = DIRECTION ( 'NONE',  ( -1.000000000000000000, 0.0000000000000000000, 0.0000000000000000000 ) ) ;
#119 = DIRECTION ( 'NONE',  ( 1.000000000000000000, 0.0000000000000000000, 0.0000000000000000000 ) ) ;
#120 = AXIS2_PLACEMENT_3D ( 'NONE', #115, #28, #97 ) ;
#121 = APPROVAL_PERSON_ORGANIZATION ( #110, #73, #70 ) ;
#122 = ORIENTED_EDGE ( 'NONE', *, *, #31, .T. ) ;
#123 = CC_DESIGN_SECURITY_CLASSIFICATION ( #106, ( #56 ) ) ;
#124 = LOCAL_TIME ( 10, 59, 16.00000000000000000, #81 ) ;
#125 = CALENDAR_DATE ( 2017, 19, 5 ) ;
#126 =( NAMED_UNIT ( * ) SI_UNIT ( $, .STERADIAN. ) SOLID_ANGLE_UNIT ( ) );
#127 = PERSON_AND_ORGANIZATION ( #36, #146 ) ;
#128 = APPROVAL ( #88, 'UNSPECIFIED' ) ;
#129 = CARTESIAN_POINT ( 'NONE',  ( 0.0000000000000000000, 0.0000000000000000000, 4.000000000000000000 ) ) ;
#130 = CLOSED_SHELL ( 'NONE', ( #156, #107, #18, #49 ) ) ;
#131 = CIRCLE ( 'NONE', #43, 25.00000000000000000 ) ;
#132 = ORIENTED_EDGE ( 'NONE', *, *, #84, .T. ) ;
#133 = PRODUCT_RELATED_PRODUCT_CATEGORY ( 'detail', '', ( #82 ) ) ;
#134 = APPROVAL_DATE_TIME ( #76, #73 ) ;
#135 = ORIENTED_EDGE ( 'NONE', *, *, #35, .T. ) ;
#136 = MANIFOLD_SOLID_BREP ( 'Extrude1', #130 ) ;
#137 = DATE_AND_TIME ( #23, #46 ) ;
#138 = CC_DESIGN_APPROVAL ( #128, ( #56 ) ) ;
#139 = ORIENTED_EDGE ( 'NONE', *, *, #24, .T. ) ;
#140 = CARTESIAN_POINT ( 'NONE',  ( 0.0000000000000000000, 0.0000000000000000000, 4.000000000000000000 ) ) ;
#141 = APPROVAL ( #153, 'UNSPECIFIED' ) ;
#142 = APPLICATION_PROTOCOL_DEFINITION ( 'international standard', 'config_control_design', 1994, #67 ) ;
#143 = PERSON_AND_ORGANIZATION_ROLE ( 'creator' ) ;
#144 = APPLICATION_CONTEXT ( 'configuration controlled 3d designs of mechanical parts and assemblies' ) ;
#145 = DIRECTION ( 'NONE',  ( -1.000000000000000000, 0.0000000000000000000, 0.0000000000000000000 ) ) ;
#146 = ORGANIZATION ( 'UNSPECIFIED', 'UNSPECIFIED', '' ) ;
#147 = CC_DESIGN_PERSON_AND_ORGANIZATION_ASSIGNMENT ( #85, #143, ( #56 ) ) ;
#148 = PERSON_AND_ORGANIZATION ( #36, #146 ) ;
#149 = CARTESIAN_POINT ( 'NONE',  ( -25.00000000000000000, 0.0000000000000000000, 4.000000000000000000 ) ) ;
#150 = PERSON_AND_ORGANIZATION_ROLE ( 'design_supplier' ) ;
#151 = CC_DESIGN_DATE_AND_TIME_ASSIGNMENT ( #22, #74, ( #106 ) ) ;
#152 = FACE_OUTER_BOUND ( 'NONE', #19, .T. ) ;
#153 = APPROVAL_STATUS ( 'not_yet_approved' ) ;
#154 = APPROVAL_ROLE ( '' ) ;
#155 = ORIENTED_EDGE ( 'NONE', *, *, #158, .T. ) ;
#156 = ADVANCED_FACE ( 'NONE', ( #14 ), #7, .T. ) ;
#157 = CYLINDRICAL_SURFACE ( 'NONE', #164, 25.00000000000000000 ) ;
#158 = EDGE_CURVE ( 'NONE', #96, #100, #1, .T. ) ;
#159 = APPROVAL_DATE_TIME ( #55, #141 ) ;
#160 = ORIENTED_EDGE ( 'NONE', *, *, #35, .F. ) ;
#161 =( LENGTH_UNIT ( ) NAMED_UNIT ( * ) SI_UNIT ( .MILLI., .METRE. ) );
#162 =( NAMED_UNIT ( * ) PLANE_ANGLE_UNIT ( ) SI_UNIT ( $, .RADIAN. ) );
#163 = DIRECTION ( 'NONE',  ( 1.000000000000000000, 0.0000000000000000000, 0.0000000000000000000 ) ) ;
#164 = AXIS2_PLACEMENT_3D ( 'NONE', #129, #117, #145 ) ;
#165 = LOCAL_TIME ( 10, 59, 16.00000000000000000, #104 ) ;
#166 = CIRCLE ( 'NONE', #25, 25.00000000000000000 ) ;
#167 = DIRECTION ( 'NONE',  ( 1.000000000000000000, 0.0000000000000000000, 0.0000000000000000000 ) ) ;
#168 = ORIENTED_EDGE ( 'NONE', *, *, #21, .F. ) ;
#169 = COORDINATED_UNIVERSAL_TIME_OFFSET ( 5, 0, .BEHIND. ) ;
#170 = AXIS2_PLACEMENT_3D ( 'NONE', #30, #33, #119 ) ;
#171 = ORIENTED_EDGE ( 'NONE', *, *, #158, .F. ) ;
#172 = CC_DESIGN_PERSON_AND_ORGANIZATION_ASSIGNMENT ( #95, #65, ( #109 ) ) ;
#173 = PRODUCT_DEFINITION_SHAPE ( 'NONE', 'NONE',  #109 ) ;
#174 = LINE ( 'NONE', #41, #113 ) ;
#175 = AXIS2_PLACEMENT_3D ( 'NONE', #102, #13, #163 ) ;
ENDSEC;
END-ISO-10303-21;
