ISO-10303-21;
HEADER;
FILE_DESCRIPTION (( 'STEP AP203' ),
    '1' );
FILE_NAME ('Web Model 31432_46676.step',
    '2017-04-10T18:14:29',
    ( '' ),
    ( '' ),
    'SwSTEP 2.0',
    'SolidWorks 2016',
    '' );
FILE_SCHEMA (( 'CONFIG_CONTROL_DESIGN' ));
ENDSEC;

DATA;
#1 = CARTESIAN_POINT ( 'NONE',  ( 25.49999999999999600, -37.99999999999999300, -1.500000000000000000 ) ) ;
#2 = FACE_OUTER_BOUND ( 'NONE', #119, .T. ) ;
#3 = APPROVAL_PERSON_ORGANIZATION ( #212, #65, #112 ) ;
#4 = DIRECTION ( 'NONE',  ( -0.0000000000000000000, 0.0000000000000000000, 1.000000000000000000 ) ) ;
#5 = CARTESIAN_POINT ( 'NONE',  ( -25.50000000000000700, 38.00000000000000700, -1.500000000000000000 ) ) ;
#6 = PERSON_AND_ORGANIZATION ( #140, #205 ) ;
#7 = VECTOR ( 'NONE', #170, 1000.000000000000000 ) ;
#8 = DIRECTION ( 'NONE',  ( -1.369518533665900100E-016, 1.000000000000000000, 0.0000000000000000000 ) ) ;
#9 = CARTESIAN_POINT ( 'NONE',  ( -25.50000000000000700, 38.00000000000000700, 1.500000000000000000 ) ) ;
#10 = VECTOR ( 'NONE', #230, 1000.000000000000000 ) ;
#11 = VECTOR ( 'NONE', #225, 1000.000000000000000 ) ;
#12 = DATE_AND_TIME ( #148, #41 ) ;
#13 = ORIENTED_EDGE ( 'NONE', *, *, #174, .F. ) ;
#14 =( NAMED_UNIT ( * ) PLANE_ANGLE_UNIT ( ) SI_UNIT ( $, .RADIAN. ) );
#15 = COORDINATED_UNIVERSAL_TIME_OFFSET ( 5, 0, .BEHIND. ) ;
#16 = DATE_AND_TIME ( #46, #223 ) ;
#17 = LINE ( 'NONE', #168, #34 ) ;
#18 = VECTOR ( 'NONE', #194, 1000.000000000000000 ) ;
#19 = DIRECTION ( 'NONE',  ( 0.0000000000000000000, -0.0000000000000000000, -1.000000000000000000 ) ) ;
#20 = APPLICATION_CONTEXT ( 'configuration controlled 3d designs of mechanical parts and assemblies' ) ;
#21 = LINE ( 'NONE', #22, #108 ) ;
#22 = CARTESIAN_POINT ( 'NONE',  ( -25.50000000000000000, -37.99999999999999300, -1.500000000000000000 ) ) ;
#23 = EDGE_LOOP ( 'NONE', ( #163, #137, #56, #13 ) ) ;
#24 = DIRECTION ( 'NONE',  ( -1.000000000000000000, -1.369518533665900100E-016, 0.0000000000000000000 ) ) ;
#25 = LINE ( 'NONE', #164, #7 ) ;
#26 = APPLICATION_CONTEXT ( 'configuration controlled 3d designs of mechanical parts and assemblies' ) ;
#27 = PERSON_AND_ORGANIZATION_ROLE ( 'classification_officer' ) ;
#28 = EDGE_CURVE ( 'NONE', #73, #91, #118, .T. ) ;
#29 = ORIENTED_EDGE ( 'NONE', *, *, #201, .F. ) ;
#30 = COORDINATED_UNIVERSAL_TIME_OFFSET ( 5, 0, .BEHIND. ) ;
#31 = ORIENTED_EDGE ( 'NONE', *, *, #184, .T. ) ;
#32 = ORIENTED_EDGE ( 'NONE', *, *, #28, .T. ) ;
#33 = EDGE_CURVE ( 'NONE', #91, #78, #21, .T. ) ;
#34 = VECTOR ( 'NONE', #181, 1000.000000000000000 ) ;
#35 = APPROVAL_PERSON_ORGANIZATION ( #169, #208, #82 ) ;
#36 = CALENDAR_DATE ( 2017, 10, 4 ) ;
#37 = DIRECTION ( 'NONE',  ( 1.000000000000000000, 0.0000000000000000000, 0.0000000000000000000 ) ) ;
#38 = FACE_OUTER_BOUND ( 'NONE', #85, .T. ) ;
#39 = FACE_OUTER_BOUND ( 'NONE', #23, .T. ) ;
#40 = DIRECTION ( 'NONE',  ( -0.0000000000000000000, -0.0000000000000000000, -1.000000000000000000 ) ) ;
#41 = LOCAL_TIME ( 14, 14, 29.00000000000000000, #217 ) ;
#42 = CARTESIAN_POINT ( 'NONE',  ( -25.50000000000000700, 38.00000000000000700, 1.500000000000000000 ) ) ;
#43 = LINE ( 'NONE', #197, #152 ) ;
#44 = PERSON_AND_ORGANIZATION ( #140, #205 ) ;
#45 = APPROVAL_STATUS ( 'not_yet_approved' ) ;
#46 = CALENDAR_DATE ( 2017, 10, 4 ) ;
#47 = FACE_OUTER_BOUND ( 'NONE', #130, .T. ) ;
#48 = PRODUCT_RELATED_PRODUCT_CATEGORY ( 'detail', '', ( #183 ) ) ;
#49 = DIRECTION ( 'NONE',  ( 1.000000000000000000, 1.369518533665900100E-016, -0.0000000000000000000 ) ) ;
#50 = VERTEX_POINT ( 'NONE', #221 ) ;
#51 = ORIENTED_EDGE ( 'NONE', *, *, #226, .F. ) ;
#52 = UNCERTAINTY_MEASURE_WITH_UNIT (LENGTH_MEASURE( 1.000000000000000100E-005 ), #58, 'distance_accuracy_value', 'NONE');
#53 =( NAMED_UNIT ( * ) SI_UNIT ( $, .STERADIAN. ) SOLID_ANGLE_UNIT ( ) );
#54 = CC_DESIGN_SECURITY_CLASSIFICATION ( #97, ( #199 ) ) ;
#55 = ORIENTED_EDGE ( 'NONE', *, *, #171, .F. ) ;
#56 = ORIENTED_EDGE ( 'NONE', *, *, #64, .F. ) ;
#57 = DIRECTION ( 'NONE',  ( -0.0000000000000000000, 0.0000000000000000000, 1.000000000000000000 ) ) ;
#58 =( LENGTH_UNIT ( ) NAMED_UNIT ( * ) SI_UNIT ( .MILLI., .METRE. ) );
#59 = CLOSED_SHELL ( 'NONE', ( #237, #101, #175, #209, #229, #233 ) ) ;
#60 = CC_DESIGN_APPROVAL ( #65, ( #97 ) ) ;
#61 = ADVANCED_BREP_SHAPE_REPRESENTATION ( 'Web Model 31432_46676', ( #133, #144 ), #222 ) ;
#62 = ORIENTED_EDGE ( 'NONE', *, *, #184, .F. ) ;
#63 = APPLICATION_PROTOCOL_DEFINITION ( 'international standard', 'config_control_design', 1994, #26 ) ;
#64 = EDGE_CURVE ( 'NONE', #210, #91, #66, .T. ) ;
#65 = APPROVAL ( #45, 'UNSPECIFIED' ) ;
#66 = LINE ( 'NONE', #107, #18 ) ;
#67 = EDGE_LOOP ( 'NONE', ( #76, #115, #93, #31 ) ) ;
#68 = CARTESIAN_POINT ( 'NONE',  ( 25.49999999999998600, 38.00000000000000700, 1.500000000000000000 ) ) ;
#69 = VECTOR ( 'NONE', #155, 1000.000000000000000 ) ;
#70 = APPROVAL_PERSON_ORGANIZATION ( #99, #136, #103 ) ;
#71 = EDGE_CURVE ( 'NONE', #117, #50, #95, .T. ) ;
#72 = APPROVAL_DATE_TIME ( #16, #208 ) ;
#73 = VERTEX_POINT ( 'NONE', #192 ) ;
#74 = CALENDAR_DATE ( 2017, 10, 4 ) ;
#75 = VECTOR ( 'NONE', #40, 1000.000000000000000 ) ;
#76 = ORIENTED_EDGE ( 'NONE', *, *, #174, .T. ) ;
#77 = ORIENTED_EDGE ( 'NONE', *, *, #201, .T. ) ;
#78 = VERTEX_POINT ( 'NONE', #1 ) ;
#79 = ORIENTED_EDGE ( 'NONE', *, *, #171, .T. ) ;
#80 = CARTESIAN_POINT ( 'NONE',  ( -25.50000000000000700, 38.00000000000000700, 1.500000000000000000 ) ) ;
#81 = PLANE ( 'NONE',  #124 ) ;
#82 = APPROVAL_ROLE ( '' ) ;
#83 = CARTESIAN_POINT ( 'NONE',  ( 0.0000000000000000000, 0.0000000000000000000, -1.500000000000000000 ) ) ;
#84 = LINE ( 'NONE', #206, #11 ) ;
#85 = EDGE_LOOP ( 'NONE', ( #131, #138, #55, #32 ) ) ;
#86 = PRODUCT_DEFINITION_SHAPE ( 'NONE', 'NONE',  #186 ) ;
#87 = CARTESIAN_POINT ( 'NONE',  ( 25.49999999999998600, 38.00000000000000700, 1.500000000000000000 ) ) ;
#88 = CC_DESIGN_DATE_AND_TIME_ASSIGNMENT ( #179, #139, ( #97 ) ) ;
#89 = LINE ( 'NONE', #104, #110 ) ;
#90 = CC_DESIGN_PERSON_AND_ORGANIZATION_ASSIGNMENT ( #162, #27, ( #97 ) ) ;
#91 = VERTEX_POINT ( 'NONE', #116 ) ;
#92 = VECTOR ( 'NONE', #167, 1000.000000000000000 ) ;
#93 = ORIENTED_EDGE ( 'NONE', *, *, #71, .F. ) ;
#94 = VERTEX_POINT ( 'NONE', #224 ) ;
#95 = LINE ( 'NONE', #9, #98 ) ;
#96 = LINE ( 'NONE', #87, #69 ) ;
#97 = SECURITY_CLASSIFICATION ( '', '', #176 ) ;
#98 = VECTOR ( 'NONE', #193, 1000.000000000000000 ) ;
#99 = PERSON_AND_ORGANIZATION ( #140, #205 ) ;
#100 = EDGE_CURVE ( 'NONE', #50, #210, #89, .T. ) ;
#101 = ADVANCED_FACE ( 'NONE', ( #143 ), #156, .F. ) ;
#102 = PLANE ( 'NONE',  #214 ) ;
#103 = APPROVAL_ROLE ( '' ) ;
#104 = CARTESIAN_POINT ( 'NONE',  ( -25.50000000000000700, 38.00000000000000700, 1.500000000000000000 ) ) ;
#105 = DIRECTION ( 'NONE',  ( 1.000000000000000000, 0.0000000000000000000, 0.0000000000000000000 ) ) ;
#106 = VERTEX_POINT ( 'NONE', #142 ) ;
#107 = CARTESIAN_POINT ( 'NONE',  ( -25.50000000000000700, 38.00000000000000700, -1.500000000000000000 ) ) ;
#108 = VECTOR ( 'NONE', #202, 1000.000000000000000 ) ;
#109 = DIRECTION ( 'NONE',  ( 0.0000000000000000000, -0.0000000000000000000, 1.000000000000000000 ) ) ;
#110 = VECTOR ( 'NONE', #122, 1000.000000000000000 ) ;
#111 = FACE_OUTER_BOUND ( 'NONE', #127, .T. ) ;
#112 = APPROVAL_ROLE ( '' ) ;
#113 = CC_DESIGN_PERSON_AND_ORGANIZATION_ASSIGNMENT ( #236, #227, ( #199 ) ) ;
#114 = ORIENTED_EDGE ( 'NONE', *, *, #71, .T. ) ;
#115 = ORIENTED_EDGE ( 'NONE', *, *, #100, .F. ) ;
#116 = CARTESIAN_POINT ( 'NONE',  ( -25.50000000000000000, -37.99999999999999300, -1.500000000000000000 ) ) ;
#117 = VERTEX_POINT ( 'NONE', #68 ) ;
#118 = LINE ( 'NONE', #196, #75 ) ;
#119 = EDGE_LOOP ( 'NONE', ( #77, #114, #146, #79 ) ) ;
#120 = DATE_AND_TIME ( #204, #178 ) ;
#121 = DESIGN_CONTEXT ( 'detailed design', #26, 'design' ) ;
#122 = DIRECTION ( 'NONE',  ( -0.0000000000000000000, -0.0000000000000000000, -1.000000000000000000 ) ) ;
#123 = ORIENTED_EDGE ( 'NONE', *, *, #157, .T. ) ;
#124 = AXIS2_PLACEMENT_3D ( 'NONE', #173, #172, #109 ) ;
#125 = CC_DESIGN_PERSON_AND_ORGANIZATION_ASSIGNMENT ( #6, #219, ( #199 ) ) ;
#126 = DIRECTION ( 'NONE',  ( 0.0000000000000000000, -1.000000000000000000, 0.0000000000000000000 ) ) ;
#127 = EDGE_LOOP ( 'NONE', ( #149, #62, #29, #123 ) ) ;
#128 = DIRECTION ( 'NONE',  ( 1.000000000000000000, 0.0000000000000000000, 0.0000000000000000000 ) ) ;
#129 = APPROVAL_DATE_TIME ( #150, #136 ) ;
#130 = EDGE_LOOP ( 'NONE', ( #180, #141, #51, #195 ) ) ;
#131 = ORIENTED_EDGE ( 'NONE', *, *, #33, .T. ) ;
#132 = CARTESIAN_POINT ( 'NONE',  ( 25.49999999999998600, 38.00000000000000700, 1.500000000000000000 ) ) ;
#133 = MANIFOLD_SOLID_BREP ( 'Boss-Extrude1', #59 ) ;
#134 = CC_DESIGN_APPROVAL ( #136, ( #199 ) ) ;
#135 = AXIS2_PLACEMENT_3D ( 'NONE', #42, #49, #8 ) ;
#136 = APPROVAL ( #191, 'UNSPECIFIED' ) ;
#137 = ORIENTED_EDGE ( 'NONE', *, *, #33, .F. ) ;
#138 = ORIENTED_EDGE ( 'NONE', *, *, #157, .F. ) ;
#139 = DATE_TIME_ROLE ( 'classification_date' ) ;
#140 = PERSON ( 'UNSPECIFIED', 'UNSPECIFIED', 'UNSPECIFIED', ('UNSPECIFIED'), ('UNSPECIFIED'), ('UNSPECIFIED') ) ;
#141 = ORIENTED_EDGE ( 'NONE', *, *, #28, .F. ) ;
#142 = CARTESIAN_POINT ( 'NONE',  ( 25.49999999999999600, -37.99999999999999300, 1.500000000000000000 ) ) ;
#143 = FACE_OUTER_BOUND ( 'NONE', #67, .T. ) ;
#144 = AXIS2_PLACEMENT_3D ( 'NONE', #188, #185, #37 ) ;
#145 = CARTESIAN_POINT ( 'NONE',  ( 0.0000000000000000000, 0.0000000000000000000, 1.500000000000000000 ) ) ;
#146 = ORIENTED_EDGE ( 'NONE', *, *, #226, .T. ) ;
#147 = DIRECTION ( 'NONE',  ( 1.369518533665900100E-016, -1.000000000000000000, 0.0000000000000000000 ) ) ;
#148 = CALENDAR_DATE ( 2017, 10, 4 ) ;
#149 = ORIENTED_EDGE ( 'NONE', *, *, #198, .T. ) ;
#150 = DATE_AND_TIME ( #36, #200 ) ;
#151 = AXIS2_PLACEMENT_3D ( 'NONE', #83, #57, #128 ) ;
#152 = VECTOR ( 'NONE', #220, 1000.000000000000000 ) ;
#153 = LINE ( 'NONE', #216, #92 ) ;
#154 = LINE ( 'NONE', #177, #10 ) ;
#155 = DIRECTION ( 'NONE',  ( -1.369518533665900300E-016, 1.000000000000000000, -0.0000000000000000000 ) ) ;
#156 = PLANE ( 'NONE',  #158 ) ;
#157 = EDGE_CURVE ( 'NONE', #106, #78, #43, .T. ) ;
#158 = AXIS2_PLACEMENT_3D ( 'NONE', #80, #126, #19 ) ;
#159 = DATE_TIME_ROLE ( 'creation_date' ) ;
#160 = CC_DESIGN_APPROVAL ( #208, ( #186 ) ) ;
#161 = SHAPE_DEFINITION_REPRESENTATION ( #86, #61 ) ;
#162 = PERSON_AND_ORGANIZATION ( #140, #205 ) ;
#163 = ORIENTED_EDGE ( 'NONE', *, *, #198, .F. ) ;
#164 = CARTESIAN_POINT ( 'NONE',  ( -25.50000000000000700, 38.00000000000000700, 1.500000000000000000 ) ) ;
#165 = CC_DESIGN_DATE_AND_TIME_ASSIGNMENT ( #12, #159, ( #186 ) ) ;
#166 = PLANE ( 'NONE',  #151 ) ;
#167 = DIRECTION ( 'NONE',  ( -1.000000000000000000, -0.0000000000000000000, -0.0000000000000000000 ) ) ;
#168 = CARTESIAN_POINT ( 'NONE',  ( 25.49999999999998600, 38.00000000000000700, -1.500000000000000000 ) ) ;
#169 = PERSON_AND_ORGANIZATION ( #140, #205 ) ;
#170 = DIRECTION ( 'NONE',  ( 1.369518533665900300E-016, -1.000000000000000000, 0.0000000000000000000 ) ) ;
#171 = EDGE_CURVE ( 'NONE', #73, #106, #84, .T. ) ;
#172 = DIRECTION ( 'NONE',  ( 0.0000000000000000000, 1.000000000000000000, 0.0000000000000000000 ) ) ;
#173 = CARTESIAN_POINT ( 'NONE',  ( -25.50000000000000000, -37.99999999999999300, 1.500000000000000000 ) ) ;
#174 = EDGE_CURVE ( 'NONE', #94, #210, #153, .T. ) ;
#175 = ADVANCED_FACE ( 'NONE', ( #47 ), #211, .F. ) ;
#176 = SECURITY_CLASSIFICATION_LEVEL ( 'unclassified' ) ;
#177 = CARTESIAN_POINT ( 'NONE',  ( 25.49999999999998600, 38.00000000000000700, 1.500000000000000000 ) ) ;
#178 = LOCAL_TIME ( 14, 14, 29.00000000000000000, #203 ) ;
#179 = DATE_AND_TIME ( #74, #231 ) ;
#180 = ORIENTED_EDGE ( 'NONE', *, *, #64, .T. ) ;
#181 = DIRECTION ( 'NONE',  ( -1.369518533665900300E-016, 1.000000000000000000, -0.0000000000000000000 ) ) ;
#182 = CC_DESIGN_PERSON_AND_ORGANIZATION_ASSIGNMENT ( #44, #189, ( #186 ) ) ;
#183 = PRODUCT ( 'Web Model 31432_46676', 'Web Model 31432_46676', '', ( #228 ) ) ;
#184 = EDGE_CURVE ( 'NONE', #117, #94, #154, .T. ) ;
#185 = DIRECTION ( 'NONE',  ( 0.0000000000000000000, 0.0000000000000000000, 1.000000000000000000 ) ) ;
#186 = PRODUCT_DEFINITION ( 'UNKNOWN', '', #199, #121 ) ;
#187 = COORDINATED_UNIVERSAL_TIME_OFFSET ( 5, 0, .BEHIND. ) ;
#188 = CARTESIAN_POINT ( 'NONE',  ( 0.0000000000000000000, 0.0000000000000000000, 0.0000000000000000000 ) ) ;
#189 = PERSON_AND_ORGANIZATION_ROLE ( 'creator' ) ;
#190 = PERSON_AND_ORGANIZATION_ROLE ( 'design_owner' ) ;
#191 = APPROVAL_STATUS ( 'not_yet_approved' ) ;
#192 = CARTESIAN_POINT ( 'NONE',  ( -25.50000000000000000, -37.99999999999999300, 1.500000000000000000 ) ) ;
#193 = DIRECTION ( 'NONE',  ( -1.000000000000000000, -0.0000000000000000000, -0.0000000000000000000 ) ) ;
#194 = DIRECTION ( 'NONE',  ( 1.369518533665900300E-016, -1.000000000000000000, 0.0000000000000000000 ) ) ;
#195 = ORIENTED_EDGE ( 'NONE', *, *, #100, .T. ) ;
#196 = CARTESIAN_POINT ( 'NONE',  ( -25.50000000000000000, -37.99999999999999300, 1.500000000000000000 ) ) ;
#197 = CARTESIAN_POINT ( 'NONE',  ( 25.49999999999999600, -37.99999999999999300, 1.500000000000000000 ) ) ;
#198 = EDGE_CURVE ( 'NONE', #78, #94, #17, .T. ) ;
#199 = PRODUCT_DEFINITION_FORMATION_WITH_SPECIFIED_SOURCE ( 'ANY', '', #183, .NOT_KNOWN. ) ;
#200 = LOCAL_TIME ( 14, 14, 29.00000000000000000, #15 ) ;
#201 = EDGE_CURVE ( 'NONE', #106, #117, #96, .T. ) ;
#202 = DIRECTION ( 'NONE',  ( 1.000000000000000000, 0.0000000000000000000, 0.0000000000000000000 ) ) ;
#203 = COORDINATED_UNIVERSAL_TIME_OFFSET ( 5, 0, .BEHIND. ) ;
#204 = CALENDAR_DATE ( 2017, 10, 4 ) ;
#205 = ORGANIZATION ( 'UNSPECIFIED', 'UNSPECIFIED', '' ) ;
#206 = CARTESIAN_POINT ( 'NONE',  ( -25.50000000000000000, -37.99999999999999300, 1.500000000000000000 ) ) ;
#207 = PLANE ( 'NONE',  #235 ) ;
#208 = APPROVAL ( #215, 'UNSPECIFIED' ) ;
#209 = ADVANCED_FACE ( 'NONE', ( #38 ), #81, .F. ) ;
#210 = VERTEX_POINT ( 'NONE', #5 ) ;
#211 = PLANE ( 'NONE',  #135 ) ;
#212 = PERSON_AND_ORGANIZATION ( #140, #205 ) ;
#213 = APPROVAL_DATE_TIME ( #120, #65 ) ;
#214 = AXIS2_PLACEMENT_3D ( 'NONE', #132, #24, #147 ) ;
#215 = APPROVAL_STATUS ( 'not_yet_approved' ) ;
#216 = CARTESIAN_POINT ( 'NONE',  ( -25.50000000000000700, 38.00000000000000700, -1.500000000000000000 ) ) ;
#217 = COORDINATED_UNIVERSAL_TIME_OFFSET ( 5, 0, .BEHIND. ) ;
#218 = APPLICATION_PROTOCOL_DEFINITION ( 'international standard', 'config_control_design', 1994, #20 ) ;
#219 = PERSON_AND_ORGANIZATION_ROLE ( 'creator' ) ;
#220 = DIRECTION ( 'NONE',  ( -0.0000000000000000000, -0.0000000000000000000, -1.000000000000000000 ) ) ;
#221 = CARTESIAN_POINT ( 'NONE',  ( -25.50000000000000700, 38.00000000000000700, 1.500000000000000000 ) ) ;
#222 =( GEOMETRIC_REPRESENTATION_CONTEXT ( 3 ) GLOBAL_UNCERTAINTY_ASSIGNED_CONTEXT ( ( #52 ) ) GLOBAL_UNIT_ASSIGNED_CONTEXT ( ( #58, #14, #53 ) ) REPRESENTATION_CONTEXT ( 'NONE', 'WORKASPACE' ) );
#223 = LOCAL_TIME ( 14, 14, 29.00000000000000000, #30 ) ;
#224 = CARTESIAN_POINT ( 'NONE',  ( 25.49999999999998600, 38.00000000000000700, -1.500000000000000000 ) ) ;
#225 = DIRECTION ( 'NONE',  ( 1.000000000000000000, 0.0000000000000000000, 0.0000000000000000000 ) ) ;
#226 = EDGE_CURVE ( 'NONE', #50, #73, #25, .T. ) ;
#227 = PERSON_AND_ORGANIZATION_ROLE ( 'design_supplier' ) ;
#228 = MECHANICAL_CONTEXT ( 'NONE', #20, 'mechanical' ) ;
#229 = ADVANCED_FACE ( 'NONE', ( #2 ), #207, .T. ) ;
#230 = DIRECTION ( 'NONE',  ( -0.0000000000000000000, -0.0000000000000000000, -1.000000000000000000 ) ) ;
#231 = LOCAL_TIME ( 14, 14, 29.00000000000000000, #187 ) ;
#232 = CC_DESIGN_PERSON_AND_ORGANIZATION_ASSIGNMENT ( #234, #190, ( #183 ) ) ;
#233 = ADVANCED_FACE ( 'NONE', ( #39 ), #166, .F. ) ;
#234 = PERSON_AND_ORGANIZATION ( #140, #205 ) ;
#235 = AXIS2_PLACEMENT_3D ( 'NONE', #145, #4, #105 ) ;
#236 = PERSON_AND_ORGANIZATION ( #140, #205 ) ;
#237 = ADVANCED_FACE ( 'NONE', ( #111 ), #102, .F. ) ;
ENDSEC;
END-ISO-10303-21;
