ISO-10303-21;
HEADER;
FILE_DESCRIPTION (( 'STEP AP214' ),
    '1' );
FILE_NAME ('4493-E0W.STEP',
    '2009-12-21T17:06:38',
    ( ' ' ),
    ( ' ' ),
    'SwSTEP 2.0',
    'SolidWorks 2009',
    '' );
FILE_SCHEMA (( 'AUTOMOTIVE_DESIGN' ));
ENDSEC;

DATA;
#1 = ORIENTED_EDGE ( 'NONE', *, *, #19, .F. ) ;
#2 = ADVANCED_FACE ( 'NONE', ( #65 ), #34, .F. ) ;
#3 = EDGE_LOOP ( 'NONE', ( #5, #4 ) ) ;
#4 = ORIENTED_EDGE ( 'NONE', *, *, #22, .F. ) ;
#5 = ORIENTED_EDGE ( 'NONE', *, *, #49, .F. ) ;
#6 = VERTEX_POINT ( 'NONE', #250 ) ;
#7 = ORIENTED_EDGE ( 'NONE', *, *, #70, .T. ) ;
#8 = CLOSED_SHELL ( 'NONE', ( #36, #69, #10, #13, #2 ) ) ;
#9 = ORIENTED_EDGE ( 'NONE', *, *, #37, .T. ) ;
#10 = ADVANCED_FACE ( 'NONE', ( #242 ), #245, .T. ) ;
#11 = ORIENTED_EDGE ( 'NONE', *, *, #70, .F. ) ;
#12 = ORIENTED_EDGE ( 'NONE', *, *, #22, .T. ) ;
#13 = ADVANCED_FACE ( 'NONE', ( #113 ), #82, .T. ) ;
#14 = ORIENTED_EDGE ( 'NONE', *, *, #68, .T. ) ;
#15 = ORIENTED_EDGE ( 'NONE', *, *, #67, .T. ) ;
#16 = ORIENTED_EDGE ( 'NONE', *, *, #19, .T. ) ;
#17 = ORIENTED_EDGE ( 'NONE', *, *, #43, .F. ) ;
#18 = ORIENTED_EDGE ( 'NONE', *, *, #44, .T. ) ;
#19 = EDGE_CURVE ( 'NONE', #42, #6, #117, .T. ) ;
#20 = ORIENTED_EDGE ( 'NONE', *, *, #66, .F. ) ;
#21 = EDGE_LOOP ( 'NONE', ( #20, #12, #15, #1, #11 ) ) ;
#22 = EDGE_CURVE ( 'NONE', #51, #50, #92, .T. ) ;
#23 = EDGE_LOOP ( 'NONE', ( #17, #16, #14, #18 ) ) ;
#24 = SURFACE_STYLE_USAGE ( .BOTH. , #25 ) ;
#25 = SURFACE_SIDE_STYLE ('',( #26 ) ) ;
#26 = SURFACE_STYLE_FILL_AREA ( #27 ) ;
#27 = FILL_AREA_STYLE ('',( #62 ) ) ;
#28 = ORIENTED_EDGE ( 'NONE', *, *, #44, .F. ) ;
#29 = EDGE_LOOP ( 'NONE', ( #9, #7, #45, #28 ) ) ;
#30 = DIRECTION ( 'NONE',  ( 1.000000000000000000, 0.0000000000000000000, 0.0000000000000000000 ) ) ;
#31 = DIRECTION ( 'NONE',  ( 0.0000000000000000000, -0.0000000000000000000, 1.000000000000000000 ) ) ;
#32 = CARTESIAN_POINT ( 'NONE',  ( 0.0000000000000000000, 8.688869039950471900E-016, -2.365000000000000200 ) ) ;
#33 = AXIS2_PLACEMENT_3D ( 'NONE', #32, #31, #30 ) ;
#34 = PLANE ( 'NONE',  #33 ) ;
#35 = VERTEX_POINT ( 'NONE', #111 ) ;
#36 = ADVANCED_FACE ( 'NONE', ( #110 ), #148, .T. ) ;
#37 = EDGE_CURVE ( 'NONE', #35, #46, #161, .T. ) ;
#38 = VERTEX_POINT ( 'NONE', #146 ) ;
#39 = UNCERTAINTY_MEASURE_WITH_UNIT (LENGTH_MEASURE( 1.000000000000000100E-005 ), #52, 'distance_accuracy_value', 'NONE');
#40 =( NAMED_UNIT ( * ) SI_UNIT ( $, .STERADIAN. ) SOLID_ANGLE_UNIT ( ) );
#41 =( NAMED_UNIT ( * ) PLANE_ANGLE_UNIT ( ) SI_UNIT ( $, .RADIAN. ) );
#42 = VERTEX_POINT ( 'NONE', #142 ) ;
#43 = EDGE_CURVE ( 'NONE', #42, #38, #120, .T. ) ;
#44 = EDGE_CURVE ( 'NONE', #35, #38, #125, .T. ) ;
#45 = ORIENTED_EDGE ( 'NONE', *, *, #43, .T. ) ;
#46 = VERTEX_POINT ( 'NONE', #118 ) ;
#47 = ORIENTED_EDGE ( 'NONE', *, *, #66, .T. ) ;
#48 = ORIENTED_EDGE ( 'NONE', *, *, #49, .T. ) ;
#49 = EDGE_CURVE ( 'NONE', #50, #51, #168, .T. ) ;
#50 = VERTEX_POINT ( 'NONE', #169 ) ;
#51 = VERTEX_POINT ( 'NONE', #159 ) ;
#52 =( LENGTH_UNIT ( ) NAMED_UNIT ( * ) SI_UNIT ( .MILLI., .METRE. ) );
#53 = MECHANICAL_DESIGN_GEOMETRIC_PRESENTATION_REPRESENTATION (  '', ( #56 ), #58 ) ;
#54 = ORIENTED_EDGE ( 'NONE', *, *, #68, .F. ) ;
#55 = PRESENTATION_LAYER_ASSIGNMENT (  '', '', ( #56 ) ) ;
#56 = STYLED_ITEM ( 'NONE', ( #57 ), #2 ) ;
#57 = PRESENTATION_STYLE_ASSIGNMENT (( #24 ) ) ;
#58 =( GEOMETRIC_REPRESENTATION_CONTEXT ( 3 ) GLOBAL_UNCERTAINTY_ASSIGNED_CONTEXT ( ( #39 ) ) GLOBAL_UNIT_ASSIGNED_CONTEXT ( ( #52, #41, #40 ) ) REPRESENTATION_CONTEXT ( 'NONE', 'WORKASPACE' ) );
#59 = EDGE_LOOP ( 'NONE', ( #48, #47, #60, #54, #63 ) ) ;
#60 = ORIENTED_EDGE ( 'NONE', *, *, #37, .F. ) ;
#61 = MANIFOLD_SOLID_BREP ( 'NONE', #8 ) ;
#62 = FILL_AREA_STYLE_COLOUR ( '', #64 ) ;
#63 = ORIENTED_EDGE ( 'NONE', *, *, #67, .F. ) ;
#64 = COLOUR_RGB ( '',0.9568627450980391500, 0.9490196078431372100, 0.9607843137254902200 ) ;
#65 = FACE_OUTER_BOUND ( 'NONE', #3, .T. ) ;
#66 = EDGE_CURVE ( 'NONE', #51, #46, #167, .T. ) ;
#67 = EDGE_CURVE ( 'NONE', #50, #6, #138, .T. ) ;
#68 = EDGE_CURVE ( 'NONE', #6, #35, #202, .T. ) ;
#69 = ADVANCED_FACE ( 'NONE', ( #188 ), #215, .T. ) ;
#70 = EDGE_CURVE ( 'NONE', #46, #42, #218, .T. ) ;
#71 = FILL_AREA_STYLE ('',( #108 ) ) ;
#72 =( LENGTH_UNIT ( ) NAMED_UNIT ( * ) SI_UNIT ( .MILLI., .METRE. ) );
#73 = DIRECTION ( 'NONE',  ( 0.0000000000000000000, 1.000000000000000000, 0.0000000000000000000 ) ) ;
#74 = SURFACE_STYLE_USAGE ( .BOTH. , #79 ) ;
#75 = DIRECTION ( 'NONE',  ( -0.0000000000000000000, -0.0000000000000000000, 1.000000000000000000 ) ) ;
#76 = CARTESIAN_POINT ( 'NONE',  ( 0.0000000000000000000, 0.0000000000000000000, -0.3655129617168937400 ) ) ;
#77 =( NAMED_UNIT ( * ) SI_UNIT ( $, .STERADIAN. ) SOLID_ANGLE_UNIT ( ) );
#78 = PRESENTATION_LAYER_ASSIGNMENT (  '', '', ( #90 ) ) ;
#79 = SURFACE_SIDE_STYLE ('',( #100 ) ) ;
#80 = AXIS2_PLACEMENT_3D ( 'NONE', #76, #75, #81 ) ;
#81 = DIRECTION ( 'NONE',  ( 1.000000000000000000, 0.0000000000000000000, 0.0000000000000000000 ) ) ;
#82 = CYLINDRICAL_SURFACE ( 'NONE', #94, 12.69999999999999900 ) ;
#83 =( NAMED_UNIT ( * ) PLANE_ANGLE_UNIT ( ) SI_UNIT ( $, .RADIAN. ) );
#84 =( LENGTH_UNIT ( ) NAMED_UNIT ( * ) SI_UNIT ( .MILLI., .METRE. ) );
#85 = MECHANICAL_DESIGN_GEOMETRIC_PRESENTATION_REPRESENTATION (  '', ( #87 ), #173 ) ;
#86 = PRESENTATION_LAYER_ASSIGNMENT (  '', '', ( #87 ) ) ;
#87 = STYLED_ITEM ( 'NONE', ( #102 ), #36 ) ;
#88 = DIRECTION ( 'NONE',  ( -0.0000000000000000000, -0.0000000000000000000, 1.000000000000000000 ) ) ;
#89 = PRESENTATION_STYLE_ASSIGNMENT (( #74 ) ) ;
#90 = STYLED_ITEM ( 'NONE', ( #89 ), #13 ) ;
#91 = AXIS2_PLACEMENT_3D ( 'NONE', #116, #115, #114 ) ;
#92 = CIRCLE ( 'NONE', #91, 12.69999999999999900 ) ;
#93 = CARTESIAN_POINT ( 'NONE',  ( 0.0000000000000000000, 0.0000000000000000000, 4.308132045400366600 ) ) ;
#94 = AXIS2_PLACEMENT_3D ( 'NONE', #93, #88, #97 ) ;
#95 = DIRECTION ( 'NONE',  ( -1.000000000000000000, 0.0000000000000000000, 0.0000000000000000000 ) ) ;
#96 = UNCERTAINTY_MEASURE_WITH_UNIT (LENGTH_MEASURE( 1.000000000000000100E-005 ), #72, 'distance_accuracy_value', 'NONE');
#97 = DIRECTION ( 'NONE',  ( 1.000000000000000000, 0.0000000000000000000, 0.0000000000000000000 ) ) ;
#98 = COLOUR_RGB ( '',0.9568627450980391500, 0.9490196078431372100, 0.9607843137254902200 ) ;
#99 =( GEOMETRIC_REPRESENTATION_CONTEXT ( 3 ) GLOBAL_UNCERTAINTY_ASSIGNED_CONTEXT ( ( #96 ) ) GLOBAL_UNIT_ASSIGNED_CONTEXT ( ( #72, #101, #77 ) ) REPRESENTATION_CONTEXT ( 'NONE', 'WORKASPACE' ) );
#100 = SURFACE_STYLE_FILL_AREA ( #71 ) ;
#101 =( NAMED_UNIT ( * ) PLANE_ANGLE_UNIT ( ) SI_UNIT ( $, .RADIAN. ) );
#102 = PRESENTATION_STYLE_ASSIGNMENT (( #103 ) ) ;
#103 = SURFACE_STYLE_USAGE ( .BOTH. , #104 ) ;
#104 = SURFACE_SIDE_STYLE ('',( #105 ) ) ;
#105 = SURFACE_STYLE_FILL_AREA ( #106 ) ;
#106 = FILL_AREA_STYLE ('',( #107 ) ) ;
#107 = FILL_AREA_STYLE_COLOUR ( '', #109 ) ;
#108 = FILL_AREA_STYLE_COLOUR ( '', #98 ) ;
#109 = COLOUR_RGB ( '',0.9568627450980391500, 0.9490196078431372100, 0.9607843137254902200 ) ;
#110 = FACE_OUTER_BOUND ( 'NONE', #59, .T. ) ;
#111 = CARTESIAN_POINT ( 'NONE',  ( 0.0000000000000000000, 12.69999999999999800, -0.3655129617168929000 ) ) ;
#112 = MECHANICAL_DESIGN_GEOMETRIC_PRESENTATION_REPRESENTATION (  '', ( #90 ), #99 ) ;
#113 = FACE_OUTER_BOUND ( 'NONE', #21, .T. ) ;
#114 = DIRECTION ( 'NONE',  ( 1.000000000000000000, 0.0000000000000000000, 0.0000000000000000000 ) ) ;
#115 = DIRECTION ( 'NONE',  ( -0.0000000000000000000, -0.0000000000000000000, 1.000000000000000000 ) ) ;
#116 = CARTESIAN_POINT ( 'NONE',  ( 0.0000000000000000000, 0.0000000000000000000, -2.365000000000000700 ) ) ;
#117 = CIRCLE ( 'NONE', #80, 12.69999999999999900 ) ;
#118 = CARTESIAN_POINT ( 'NONE',  ( -12.69999999999999900, 1.555250069354419100E-015, -0.3655129617168937400 ) ) ;
#119 =( NAMED_UNIT ( * ) SI_UNIT ( $, .STERADIAN. ) SOLID_ANGLE_UNIT ( ) );
#120 = CIRCLE ( 'NONE', #156, 30.89999999999999900 ) ;
#121 = CARTESIAN_POINT ( 'NONE',  ( 0.0000000000000000000, 0.0000000000000000000, -28.53499999999999700 ) ) ;
#122 = DIRECTION ( 'NONE',  ( -1.224606353822377300E-016, -1.000000000000000000, 0.0000000000000000000 ) ) ;
#123 = CARTESIAN_POINT ( 'NONE',  ( 0.0000000000000000000, 0.0000000000000000000, -0.3655129617168937400 ) ) ;
#124 = AXIS2_PLACEMENT_3D ( 'NONE', #151, #127, #126 ) ;
#125 = CIRCLE ( 'NONE', #124, 30.89999999999999900 ) ;
#126 = DIRECTION ( 'NONE',  ( 0.0000000000000000000, 0.0000000000000000000, -1.000000000000000000 ) ) ;
#127 = DIRECTION ( 'NONE',  ( 1.000000000000000000, 0.0000000000000000000, 0.0000000000000000000 ) ) ;
#128 = UNCERTAINTY_MEASURE_WITH_UNIT (LENGTH_MEASURE( 1.000000000000000100E-005 ), #84, 'distance_accuracy_value', 'NONE');
#129 = DIRECTION ( 'NONE',  ( 1.000000000000000000, 0.0000000000000000000, 0.0000000000000000000 ) ) ;
#130 = DIRECTION ( 'NONE',  ( -0.0000000000000000000, -0.0000000000000000000, 1.000000000000000000 ) ) ;
#131 = VECTOR ( 'NONE', #130, 1000.000000000000000 ) ;
#132 = CARTESIAN_POINT ( 'NONE',  ( 0.0000000000000000000, 0.0000000000000000000, 4.308132045400366600 ) ) ;
#133 = STYLED_ITEM ( 'NONE', ( #134 ), #197 ) ;
#134 = PRESENTATION_STYLE_ASSIGNMENT (( #139 ) ) ;
#135 = DIRECTION ( 'NONE',  ( -0.0000000000000000000, -0.0000000000000000000, 1.000000000000000000 ) ) ;
#136 = VECTOR ( 'NONE', #135, 1000.000000000000000 ) ;
#137 = CARTESIAN_POINT ( 'NONE',  ( 12.69999999999999900, 0.0000000000000000000, 4.308132045400366600 ) ) ;
#138 = LINE ( 'NONE', #137, #136 ) ;
#139 = SURFACE_STYLE_USAGE ( .BOTH. , #190 ) ;
#140 =( GEOMETRIC_REPRESENTATION_CONTEXT ( 3 ) GLOBAL_UNCERTAINTY_ASSIGNED_CONTEXT ( ( #157 ) ) GLOBAL_UNIT_ASSIGNED_CONTEXT ( ( #171, #141, #119 ) ) REPRESENTATION_CONTEXT ( 'NONE', 'WORKASPACE' ) );
#141 =( NAMED_UNIT ( * ) PLANE_ANGLE_UNIT ( ) SI_UNIT ( $, .RADIAN. ) );
#142 = CARTESIAN_POINT ( 'NONE',  ( -1.555250069354418700E-015, -12.69999999999999800, -0.3655129617168929000 ) ) ;
#143 = SURFACE_STYLE_USAGE ( .BOTH. , #144 ) ;
#144 = SURFACE_SIDE_STYLE ('',( #145 ) ) ;
#145 = SURFACE_STYLE_FILL_AREA ( #174 ) ;
#146 = CARTESIAN_POINT ( 'NONE',  ( 0.0000000000000000000, 1.892016816655572600E-015, 2.364999999999998900 ) ) ;
#147 = AXIS2_PLACEMENT_3D ( 'NONE', #132, #150, #170 ) ;
#148 = CYLINDRICAL_SURFACE ( 'NONE', #147, 12.69999999999999900 ) ;
#149 = DIRECTION ( 'NONE',  ( 1.000000000000000000, 0.0000000000000000000, 0.0000000000000000000 ) ) ;
#150 = DIRECTION ( 'NONE',  ( -0.0000000000000000000, -0.0000000000000000000, 1.000000000000000000 ) ) ;
#151 = CARTESIAN_POINT ( 'NONE',  ( 0.0000000000000000000, 0.0000000000000000000, -28.53499999999999700 ) ) ;
#152 = MECHANICAL_DESIGN_GEOMETRIC_PRESENTATION_REPRESENTATION (  '', ( #164 ), #140 ) ;
#153 = DIRECTION ( 'NONE',  ( -0.0000000000000000000, -0.0000000000000000000, 1.000000000000000000 ) ) ;
#154 = CARTESIAN_POINT ( 'NONE',  ( 0.0000000000000000000, 0.0000000000000000000, -2.365000000000000700 ) ) ;
#155 = AXIS2_PLACEMENT_3D ( 'NONE', #154, #153, #129 ) ;
#156 = AXIS2_PLACEMENT_3D ( 'NONE', #121, #166, #122 ) ;
#157 = UNCERTAINTY_MEASURE_WITH_UNIT (LENGTH_MEASURE( 1.000000000000000100E-005 ), #171, 'distance_accuracy_value', 'NONE');
#158 = DIRECTION ( 'NONE',  ( -0.0000000000000000000, -0.0000000000000000000, 1.000000000000000000 ) ) ;
#159 = CARTESIAN_POINT ( 'NONE',  ( -12.69999999999999900, 1.555250069354419100E-015, -2.365000000000000700 ) ) ;
#160 =( NAMED_UNIT ( * ) SI_UNIT ( $, .STERADIAN. ) SOLID_ANGLE_UNIT ( ) );
#161 = CIRCLE ( 'NONE', #172, 12.69999999999999900 ) ;
#162 = CARTESIAN_POINT ( 'NONE',  ( -12.69999999999999900, 1.555250069354419100E-015, 4.308132045400366600 ) ) ;
#163 = PRESENTATION_LAYER_ASSIGNMENT (  '', '', ( #164 ) ) ;
#164 = STYLED_ITEM ( 'NONE', ( #165 ), #61 ) ;
#165 = PRESENTATION_STYLE_ASSIGNMENT (( #143 ) ) ;
#166 = DIRECTION ( 'NONE',  ( -1.000000000000000000, 1.224606353822377300E-016, 0.0000000000000000000 ) ) ;
#167 = LINE ( 'NONE', #162, #131 ) ;
#168 = CIRCLE ( 'NONE', #155, 12.69999999999999900 ) ;
#169 = CARTESIAN_POINT ( 'NONE',  ( 12.69999999999999900, 0.0000000000000000000, -2.365000000000000700 ) ) ;
#170 = DIRECTION ( 'NONE',  ( 1.000000000000000000, 0.0000000000000000000, 0.0000000000000000000 ) ) ;
#171 =( LENGTH_UNIT ( ) NAMED_UNIT ( * ) SI_UNIT ( .MILLI., .METRE. ) );
#172 = AXIS2_PLACEMENT_3D ( 'NONE', #123, #158, #149 ) ;
#173 =( GEOMETRIC_REPRESENTATION_CONTEXT ( 3 ) GLOBAL_UNCERTAINTY_ASSIGNED_CONTEXT ( ( #128 ) ) GLOBAL_UNIT_ASSIGNED_CONTEXT ( ( #84, #83, #160 ) ) REPRESENTATION_CONTEXT ( 'NONE', 'WORKASPACE' ) );
#174 = FILL_AREA_STYLE ('',( #175 ) ) ;
#175 = FILL_AREA_STYLE_COLOUR ( '', #176 ) ;
#176 = COLOUR_RGB ( '',0.7960784313725489700, 0.8235294117647058400, 0.9372549019607843100 ) ;
#177 =( LENGTH_UNIT ( ) NAMED_UNIT ( * ) SI_UNIT ( .MILLI., .METRE. ) );
#178 = PRODUCT ( '4493-E0W', '4493-E0W', '', ( #180 ) ) ;
#179 = UNCERTAINTY_MEASURE_WITH_UNIT (LENGTH_MEASURE( 1.000000000000000100E-005 ), #203, 'distance_accuracy_value', 'NONE');
#180 = PRODUCT_CONTEXT ( 'NONE', #232, 'mechanical' ) ;
#181 = CARTESIAN_POINT ( 'NONE',  ( 0.0000000000000000000, 0.0000000000000000000, -28.53499999999999700 ) ) ;
#182 = AXIS2_PLACEMENT_3D ( 'NONE', #219, #212, #220 ) ;
#183 = SURFACE_SIDE_STYLE ('',( #209 ) ) ;
#184 = MECHANICAL_DESIGN_GEOMETRIC_PRESENTATION_REPRESENTATION (  '', ( #205 ), #214 ) ;
#185 =( NAMED_UNIT ( * ) SI_UNIT ( $, .STERADIAN. ) SOLID_ANGLE_UNIT ( ) );
#186 = DIRECTION ( 'NONE',  ( -1.000000000000000000, 0.0000000000000000000, 0.0000000000000000000 ) ) ;
#187 = COLOUR_RGB ( '',0.9568627450980391500, 0.9490196078431372100, 0.9607843137254902200 ) ;
#188 = FACE_OUTER_BOUND ( 'NONE', #29, .T. ) ;
#189 = DIRECTION ( 'NONE',  ( 1.000000000000000000, 0.0000000000000000000, 0.0000000000000000000 ) ) ;
#190 = SURFACE_SIDE_STYLE ('',( #191 ) ) ;
#191 = SURFACE_STYLE_FILL_AREA ( #192 ) ;
#192 = FILL_AREA_STYLE ('',( #193 ) ) ;
#193 = FILL_AREA_STYLE_COLOUR ( '', #194 ) ;
#194 = COLOUR_RGB ( '',0.7960784313725489700, 0.8235294117647058400, 0.9372549019607843100 ) ;
#195 = APPLICATION_PROTOCOL_DEFINITION ( 'draft international standard', 'automotive_design', 1998, #196 ) ;
#196 = APPLICATION_CONTEXT ( 'automotive_design' ) ;
#197 = ADVANCED_BREP_SHAPE_REPRESENTATION ( '4493-E0W', ( #61, #231 ), #198 ) ;
#198 =( GEOMETRIC_REPRESENTATION_CONTEXT ( 3 ) GLOBAL_UNCERTAINTY_ASSIGNED_CONTEXT ( ( #200 ) ) GLOBAL_UNIT_ASSIGNED_CONTEXT ( ( #177, #199, #201 ) ) REPRESENTATION_CONTEXT ( 'NONE', 'WORKASPACE' ) );
#199 =( NAMED_UNIT ( * ) PLANE_ANGLE_UNIT ( ) SI_UNIT ( $, .RADIAN. ) );
#200 = UNCERTAINTY_MEASURE_WITH_UNIT (LENGTH_MEASURE( 1.000000000000000100E-005 ), #177, 'distance_accuracy_value', 'NONE');
#201 =( NAMED_UNIT ( * ) SI_UNIT ( $, .STERADIAN. ) SOLID_ANGLE_UNIT ( ) );
#202 = CIRCLE ( 'NONE', #182, 12.69999999999999900 ) ;
#203 =( LENGTH_UNIT ( ) NAMED_UNIT ( * ) SI_UNIT ( .MILLI., .METRE. ) );
#204 = DIRECTION ( 'NONE',  ( -0.0000000000000000000, -0.0000000000000000000, 1.000000000000000000 ) ) ;
#205 = STYLED_ITEM ( 'NONE', ( #221 ), #69 ) ;
#206 = AXIS2_PLACEMENT_3D ( 'NONE', #181, #186, #210 ) ;
#207 =( NAMED_UNIT ( * ) PLANE_ANGLE_UNIT ( ) SI_UNIT ( $, .RADIAN. ) );
#208 = FILL_AREA_STYLE_COLOUR ( '', #187 ) ;
#209 = SURFACE_STYLE_FILL_AREA ( #211 ) ;
#210 = DIRECTION ( 'NONE',  ( 0.0000000000000000000, 1.000000000000000000, 0.0000000000000000000 ) ) ;
#211 = FILL_AREA_STYLE ('',( #208 ) ) ;
#212 = DIRECTION ( 'NONE',  ( -0.0000000000000000000, -0.0000000000000000000, 1.000000000000000000 ) ) ;
#213 = PRESENTATION_LAYER_ASSIGNMENT (  '', '', ( #205 ) ) ;
#214 =( GEOMETRIC_REPRESENTATION_CONTEXT ( 3 ) GLOBAL_UNCERTAINTY_ASSIGNED_CONTEXT ( ( #179 ) ) GLOBAL_UNIT_ASSIGNED_CONTEXT ( ( #203, #207, #185 ) ) REPRESENTATION_CONTEXT ( 'NONE', 'WORKASPACE' ) );
#215 = SPHERICAL_SURFACE ( 'NONE', #206, 30.89999999999999900 ) ;
#216 = CARTESIAN_POINT ( 'NONE',  ( 0.0000000000000000000, 0.0000000000000000000, -0.3655129617168937400 ) ) ;
#217 = SURFACE_STYLE_USAGE ( .BOTH. , #183 ) ;
#218 = CIRCLE ( 'NONE', #222, 12.69999999999999900 ) ;
#219 = CARTESIAN_POINT ( 'NONE',  ( 0.0000000000000000000, 0.0000000000000000000, -0.3655129617168937400 ) ) ;
#220 = DIRECTION ( 'NONE',  ( 1.000000000000000000, 0.0000000000000000000, 0.0000000000000000000 ) ) ;
#221 = PRESENTATION_STYLE_ASSIGNMENT (( #217 ) ) ;
#222 = AXIS2_PLACEMENT_3D ( 'NONE', #216, #204, #189 ) ;
#223 = APPLICATION_PROTOCOL_DEFINITION ( 'draft international standard', 'automotive_design', 1998, #232 ) ;
#224 = DIRECTION ( 'NONE',  ( 0.0000000000000000000, 0.0000000000000000000, 1.000000000000000000 ) ) ;
#225 = CARTESIAN_POINT ( 'NONE',  ( 0.0000000000000000000, 0.0000000000000000000, 0.0000000000000000000 ) ) ;
#226 = DIRECTION ( 'NONE',  ( 1.000000000000000000, 0.0000000000000000000, 0.0000000000000000000 ) ) ;
#227 = MECHANICAL_DESIGN_GEOMETRIC_PRESENTATION_REPRESENTATION (  '', ( #133 ), #228 ) ;
#228 =( GEOMETRIC_REPRESENTATION_CONTEXT ( 3 ) GLOBAL_UNCERTAINTY_ASSIGNED_CONTEXT ( ( #229 ) ) GLOBAL_UNIT_ASSIGNED_CONTEXT ( ( #235, #233, #234 ) ) REPRESENTATION_CONTEXT ( 'NONE', 'WORKASPACE' ) );
#229 = UNCERTAINTY_MEASURE_WITH_UNIT (LENGTH_MEASURE( 1.000000000000000100E-005 ), #235, 'distance_accuracy_value', 'NONE');
#230 = PRESENTATION_LAYER_ASSIGNMENT (  '', '', ( #133 ) ) ;
#231 = AXIS2_PLACEMENT_3D ( 'NONE', #225, #224, #226 ) ;
#232 = APPLICATION_CONTEXT ( 'automotive_design' ) ;
#233 =( NAMED_UNIT ( * ) PLANE_ANGLE_UNIT ( ) SI_UNIT ( $, .RADIAN. ) );
#234 =( NAMED_UNIT ( * ) SI_UNIT ( $, .STERADIAN. ) SOLID_ANGLE_UNIT ( ) );
#235 =( LENGTH_UNIT ( ) NAMED_UNIT ( * ) SI_UNIT ( .MILLI., .METRE. ) );
#236 = PRODUCT_RELATED_PRODUCT_CATEGORY ( 'part', '', ( #178 ) ) ;
#237 = SHAPE_DEFINITION_REPRESENTATION ( #238, #197 ) ;
#238 = PRODUCT_DEFINITION_SHAPE ( 'NONE', 'NONE',  #239 ) ;
#239 = PRODUCT_DEFINITION ( 'UNKNOWN', '', #241, #240 ) ;
#240 = PRODUCT_DEFINITION_CONTEXT ( 'detailed design', #196, 'design' ) ;
#241 = PRODUCT_DEFINITION_FORMATION_WITH_SPECIFIED_SOURCE ( 'ANY', '', #178, .NOT_KNOWN. ) ;
#242 = FACE_OUTER_BOUND ( 'NONE', #23, .T. ) ;
#243 = CARTESIAN_POINT ( 'NONE',  ( 0.0000000000000000000, 0.0000000000000000000, -28.53499999999999700 ) ) ;
#244 = AXIS2_PLACEMENT_3D ( 'NONE', #243, #95, #73 ) ;
#245 = SPHERICAL_SURFACE ( 'NONE', #244, 30.89999999999999900 ) ;
#246 =( GEOMETRIC_REPRESENTATION_CONTEXT ( 3 ) GLOBAL_UNCERTAINTY_ASSIGNED_CONTEXT ( ( #251 ) ) GLOBAL_UNIT_ASSIGNED_CONTEXT ( ( #249, #248, #252 ) ) REPRESENTATION_CONTEXT ( 'NONE', 'WORKASPACE' ) );
#247 = FILL_AREA_STYLE ('',( #260 ) ) ;
#248 =( NAMED_UNIT ( * ) PLANE_ANGLE_UNIT ( ) SI_UNIT ( $, .RADIAN. ) );
#249 =( LENGTH_UNIT ( ) NAMED_UNIT ( * ) SI_UNIT ( .MILLI., .METRE. ) );
#250 = CARTESIAN_POINT ( 'NONE',  ( 12.69999999999999900, 0.0000000000000000000, -0.3655129617168937400 ) ) ;
#251 = UNCERTAINTY_MEASURE_WITH_UNIT (LENGTH_MEASURE( 1.000000000000000100E-005 ), #249, 'distance_accuracy_value', 'NONE');
#252 =( NAMED_UNIT ( * ) SI_UNIT ( $, .STERADIAN. ) SOLID_ANGLE_UNIT ( ) );
#253 = SURFACE_STYLE_FILL_AREA ( #247 ) ;
#254 = MECHANICAL_DESIGN_GEOMETRIC_PRESENTATION_REPRESENTATION (  '', ( #256 ), #246 ) ;
#255 = PRESENTATION_LAYER_ASSIGNMENT (  '', '', ( #256 ) ) ;
#256 = STYLED_ITEM ( 'NONE', ( #257 ), #10 ) ;
#257 = PRESENTATION_STYLE_ASSIGNMENT (( #258 ) ) ;
#258 = SURFACE_STYLE_USAGE ( .BOTH. , #259 ) ;
#259 = SURFACE_SIDE_STYLE ('',( #253 ) ) ;
#260 = FILL_AREA_STYLE_COLOUR ( '', #261 ) ;
#261 = COLOUR_RGB ( '',0.9568627450980391500, 0.9490196078431372100, 0.9607843137254902200 ) ;
ENDSEC;
END-ISO-10303-21;
