ISO-10303-21;
HEADER;
FILE_DESCRIPTION (( 'STEP AP203' ),
    '1' );
FILE_NAME ('25005-E0W.STEP',
    '2012-09-28T16:16:13',
    ( 'Admin' ),
    ( 'Thorlabs, Inc.' ),
    'SwSTEP 2.0',
    'SolidWorks 2011',
    '' );
FILE_SCHEMA (( 'CONFIG_CONTROL_DESIGN' ));
ENDSEC;

DATA;
#1 = MECHANICAL_CONTEXT ( 'NONE', #3, 'mechanical' ) ;
#2 = APPLICATION_PROTOCOL_DEFINITION ( 'international standard', 'config_control_design', 1994, #3 ) ;
#3 = APPLICATION_CONTEXT ( 'configuration controlled 3d designs of mechanical parts and assemblies' ) ;
#4 = PRODUCT ( '25005-E0W', '25005-E0W', '', ( #1 ) ) ;
#5 = PERSON ( 'UNSPECIFIED', 'UNSPECIFIED', 'UNSPECIFIED', ('UNSPECIFIED'), ('UNSPECIFIED'), ('UNSPECIFIED') ) ;
#6 = CONICAL_SURFACE ( 'NONE', #137, 12.69999999999999800, 0.7853981633974237400 ) ;
#7 = EDGE_CURVE ( 'NONE', #93, #26, #23, .T. ) ;
#8 = EDGE_LOOP ( 'NONE', ( #9, #79, #80, #10 ) ) ;
#9 = ORIENTED_EDGE ( 'NONE', *, *, #25, .F. ) ;
#10 = ORIENTED_EDGE ( 'NONE', *, *, #7, .T. ) ;
#11 = ADVANCED_FACE ( 'NONE', ( #142 ), #6, .T. ) ;
#12 = ORIENTED_EDGE ( 'NONE', *, *, #16, .T. ) ;
#13 = ADVANCED_FACE ( 'NONE', ( #135 ), #134, .F. ) ;
#14 = ADVANCED_FACE ( 'NONE', ( #98 ), #127, .T. ) ;
#15 = EDGE_LOOP ( 'NONE', ( #17, #18, #12 ) ) ;
#16 = EDGE_CURVE ( 'NONE', #91, #109, #132, .T. ) ;
#17 = ORIENTED_EDGE ( 'NONE', *, *, #112, .F. ) ;
#18 = ORIENTED_EDGE ( 'NONE', *, *, #47, .T. ) ;
#19 = ORIENTED_EDGE ( 'NONE', *, *, #104, .F. ) ;
#20 = EDGE_LOOP ( 'NONE', ( #24, #28, #22, #90 ) ) ;
#21 = EDGE_LOOP ( 'NONE', ( #83, #87, #86, #88 ) ) ;
#22 = ORIENTED_EDGE ( 'NONE', *, *, #29, .T. ) ;
#23 = CIRCLE ( 'NONE', #141, 12.69999999999999800 ) ;
#24 = ORIENTED_EDGE ( 'NONE', *, *, #89, .F. ) ;
#25 = EDGE_CURVE ( 'NONE', #91, #26, #60, .T. ) ;
#26 = VERTEX_POINT ( 'NONE', #131 ) ;
#27 = VERTEX_POINT ( 'NONE', #118 ) ;
#28 = ORIENTED_EDGE ( 'NONE', *, *, #25, .T. ) ;
#29 = EDGE_CURVE ( 'NONE', #26, #93, #126, .T. ) ;
#30 = EDGE_CURVE ( 'NONE', #27, #85, #133, .T. ) ;
#31 = EDGE_CURVE ( 'NONE', #94, #93, #49, .T. ) ;
#32 = ORIENTED_EDGE ( 'NONE', *, *, #84, .F. ) ;
#33 = ORIENTED_EDGE ( 'NONE', *, *, #7, .F. ) ;
#34 = ORIENTED_EDGE ( 'NONE', *, *, #36, .T. ) ;
#35 = ORIENTED_EDGE ( 'NONE', *, *, #38, .T. ) ;
#36 = EDGE_CURVE ( 'NONE', #85, #27, #72, .T. ) ;
#37 = EDGE_LOOP ( 'NONE', ( #42, #35, #40, #41 ) ) ;
#38 = EDGE_CURVE ( 'NONE', #103, #114, #50, .T. ) ;
#39 = ADVANCED_FACE ( 'NONE', ( #222 ), #216, .T. ) ;
#40 = ORIENTED_EDGE ( 'NONE', *, *, #104, .T. ) ;
#41 = ORIENTED_EDGE ( 'NONE', *, *, #36, .F. ) ;
#42 = ORIENTED_EDGE ( 'NONE', *, *, #110, .F. ) ;
#43 = ORIENTED_EDGE ( 'NONE', *, *, #38, .F. ) ;
#44 = ADVANCED_FACE ( 'NONE', ( #146 ), #186, .T. ) ;
#45 = ORIENTED_EDGE ( 'NONE', *, *, #95, .F. ) ;
#46 = EDGE_LOOP ( 'NONE', ( #45, #43 ) ) ;
#47 = EDGE_CURVE ( 'NONE', #94, #91, #155, .T. ) ;
#48 = CARTESIAN_POINT ( 'NONE',  ( -12.69999999999999800, 0.0000000000000000000, 0.5241642179041259300 ) ) ;
#49 = LINE ( 'NONE', #48, #71 ) ;
#50 = CIRCLE ( 'NONE', #74, 12.55857864376269000 ) ;
#51 = DIRECTION ( 'NONE',  ( 1.000000000000000000, 0.0000000000000000000, 0.0000000000000000000 ) ) ;
#52 = DIRECTION ( 'NONE',  ( -0.0000000000000000000, -0.0000000000000000000, 1.000000000000000000 ) ) ;
#53 = CARTESIAN_POINT ( 'NONE',  ( 0.0000000000000000000, 0.0000000000000000000, 0.5241642179041259300 ) ) ;
#54 = AXIS2_PLACEMENT_3D ( 'NONE', #53, #52, #51 ) ;
#55 = AXIS2_PLACEMENT_3D ( 'NONE', #77, #76, #75 ) ;
#56 = CARTESIAN_POINT ( 'NONE',  ( 0.0000000000000000000, 0.0000000000000000000, -1.208578643762690900 ) ) ;
#57 = DIRECTION ( 'NONE',  ( 0.7071067811865301400, 8.659560562354719600E-017, -0.7071067811865648900 ) ) ;
#58 = VECTOR ( 'NONE', #57, 1000.000000000000000 ) ;
#59 = CARTESIAN_POINT ( 'NONE',  ( 12.69999999999999800, 1.555301434917138200E-015, 0.5241642179041259300 ) ) ;
#60 = LINE ( 'NONE', #59, #58 ) ;
#61 = DIRECTION ( 'NONE',  ( 1.000000000000000000, 0.0000000000000000000, 0.0000000000000000000 ) ) ;
#62 = DIRECTION ( 'NONE',  ( -0.0000000000000000000, -0.0000000000000000000, 1.000000000000000000 ) ) ;
#63 = DIRECTION ( 'NONE',  ( 1.000000000000000000, 0.0000000000000000000, 0.0000000000000000000 ) ) ;
#64 = DIRECTION ( 'NONE',  ( 0.0000000000000000000, 0.0000000000000000000, 1.000000000000000000 ) ) ;
#65 = CARTESIAN_POINT ( 'NONE',  ( 0.0000000000000000000, 0.0000000000000000000, -1.349999999999997000 ) ) ;
#66 = DIRECTION ( 'NONE',  ( 1.000000000000000000, 0.0000000000000000000, 0.0000000000000000000 ) ) ;
#67 = CARTESIAN_POINT ( 'NONE',  ( 0.0000000000000000000, 0.0000000000000000000, 0.0000000000000000000 ) ) ;
#68 = DIRECTION ( 'NONE',  ( -0.0000000000000000000, -0.0000000000000000000, 1.000000000000000000 ) ) ;
#69 = AXIS2_PLACEMENT_3D ( 'NONE', #56, #68, #66 ) ;
#70 = DIRECTION ( 'NONE',  ( -0.7071067811865301400, 0.0000000000000000000, -0.7071067811865648900 ) ) ;
#71 = VECTOR ( 'NONE', #70, 1000.000000000000000 ) ;
#72 = CIRCLE ( 'NONE', #69, 12.69999999999999800 ) ;
#73 = AXIS2_PLACEMENT_3D ( 'NONE', #67, #64, #63 ) ;
#74 = AXIS2_PLACEMENT_3D ( 'NONE', #65, #62, #61 ) ;
#75 = DIRECTION ( 'NONE',  ( 1.000000000000000000, 0.0000000000000000000, 0.0000000000000000000 ) ) ;
#76 = DIRECTION ( 'NONE',  ( -0.0000000000000000000, -0.0000000000000000000, 1.000000000000000000 ) ) ;
#77 = CARTESIAN_POINT ( 'NONE',  ( 0.0000000000000000000, 0.0000000000000000000, -1.208578643762690900 ) ) ;
#78 = EDGE_LOOP ( 'NONE', ( #32, #34, #81, #33 ) ) ;
#79 = ORIENTED_EDGE ( 'NONE', *, *, #47, .F. ) ;
#80 = ORIENTED_EDGE ( 'NONE', *, *, #31, .T. ) ;
#81 = ORIENTED_EDGE ( 'NONE', *, *, #117, .T. ) ;
#82 = ADVANCED_FACE ( 'NONE', ( #194 ), #169, .T. ) ;
#83 = ORIENTED_EDGE ( 'NONE', *, *, #30, .T. ) ;
#84 = EDGE_CURVE ( 'NONE', #85, #93, #219, .T. ) ;
#85 = VERTEX_POINT ( 'NONE', #215 ) ;
#86 = ORIENTED_EDGE ( 'NONE', *, *, #29, .F. ) ;
#87 = ORIENTED_EDGE ( 'NONE', *, *, #84, .T. ) ;
#88 = ORIENTED_EDGE ( 'NONE', *, *, #117, .F. ) ;
#89 = EDGE_CURVE ( 'NONE', #91, #94, #201, .T. ) ;
#90 = ORIENTED_EDGE ( 'NONE', *, *, #31, .F. ) ;
#91 = VERTEX_POINT ( 'NONE', #214 ) ;
#92 = ADVANCED_FACE ( 'NONE', ( #148 ), #212, .T. ) ;
#93 = VERTEX_POINT ( 'NONE', #197 ) ;
#94 = VERTEX_POINT ( 'NONE', #208 ) ;
#95 = EDGE_CURVE ( 'NONE', #114, #103, #223, .T. ) ;
#96 = EDGE_LOOP ( 'NONE', ( #102, #106, #111, #19 ) ) ;
#97 = ADVANCED_FACE ( 'NONE', ( #206 ), #207, .T. ) ;
#98 = FACE_OUTER_BOUND ( 'NONE', #15, .T. ) ;
#99 = CLOSED_SHELL ( 'NONE', ( #92, #82, #97, #108, #14, #13, #39, #44, #11 ) ) ;
#100 = DIRECTION ( 'NONE',  ( -1.000000000000000000, 0.0000000000000000000, 0.0000000000000000000 ) ) ;
#101 = DIRECTION ( 'NONE',  ( 0.0000000000000000000, 0.0000000000000000000, -1.000000000000000000 ) ) ;
#102 = ORIENTED_EDGE ( 'NONE', *, *, #95, .T. ) ;
#103 = VERTEX_POINT ( 'NONE', #202 ) ;
#104 = EDGE_CURVE ( 'NONE', #114, #27, #224, .T. ) ;
#105 = EDGE_LOOP ( 'NONE', ( #113, #107, #115 ) ) ;
#106 = ORIENTED_EDGE ( 'NONE', *, *, #110, .T. ) ;
#107 = ORIENTED_EDGE ( 'NONE', *, *, #112, .T. ) ;
#108 = ADVANCED_FACE ( 'NONE', ( #152 ), #225, .T. ) ;
#109 = VERTEX_POINT ( 'NONE', #189 ) ;
#110 = EDGE_CURVE ( 'NONE', #103, #85, #149, .T. ) ;
#111 = ORIENTED_EDGE ( 'NONE', *, *, #30, .F. ) ;
#112 = EDGE_CURVE ( 'NONE', #94, #109, #150, .T. ) ;
#113 = ORIENTED_EDGE ( 'NONE', *, *, #89, .T. ) ;
#114 = VERTEX_POINT ( 'NONE', #190 ) ;
#115 = ORIENTED_EDGE ( 'NONE', *, *, #16, .F. ) ;
#116 = MANIFOLD_SOLID_BREP ( '25005-001-1-solid1', #99 ) ;
#117 = EDGE_CURVE ( 'NONE', #27, #26, #171, .T. ) ;
#118 = CARTESIAN_POINT ( 'NONE',  ( 12.69999999999999800, 0.0000000000000000000, -1.208578643762690900 ) ) ;
#119 = DIRECTION ( 'NONE',  ( 0.0000000000000000000, 0.0000000000000000000, -1.000000000000000000 ) ) ;
#120 = DIRECTION ( 'NONE',  ( 0.0000000000000000000, -1.000000000000000000, 0.0000000000000000000 ) ) ;
#121 = DIRECTION ( 'NONE',  ( 1.000000000000000000, 0.0000000000000000000, 0.0000000000000000000 ) ) ;
#122 = DIRECTION ( 'NONE',  ( -0.0000000000000000000, -0.0000000000000000000, 1.000000000000000000 ) ) ;
#123 = CARTESIAN_POINT ( 'NONE',  ( 0.0000000000000000000, 0.0000000000000000000, -113.6699961895956800 ) ) ;
#124 = AXIS2_PLACEMENT_3D ( 'NONE', #123, #122, #121 ) ;
#125 = AXIS2_PLACEMENT_3D ( 'NONE', #143, #120, #119 ) ;
#126 = CIRCLE ( 'NONE', #54, 12.69999999999999800 ) ;
#127 = TOROIDAL_SURFACE ( 'NONE', #124, 0.02960650923488229000, 115.0199999999999500 ) ;
#128 = DIRECTION ( 'NONE',  ( 1.000000000000000000, 0.0000000000000000000, 0.0000000000000000000 ) ) ;
#129 = DIRECTION ( 'NONE',  ( 0.0000000000000000000, -0.0000000000000000000, 1.000000000000000000 ) ) ;
#130 = CARTESIAN_POINT ( 'NONE',  ( 0.0000000000000000000, 0.0000000000000000000, -1.350000000000000300 ) ) ;
#131 = CARTESIAN_POINT ( 'NONE',  ( 12.69999999999999800, 0.0000000000000000000, 0.5241642179041259300 ) ) ;
#132 = CIRCLE ( 'NONE', #125, 115.0199999999999400 ) ;
#133 = CIRCLE ( 'NONE', #55, 12.69999999999999800 ) ;
#134 = PLANE ( 'NONE',  #144 ) ;
#135 = FACE_OUTER_BOUND ( 'NONE', #46, .T. ) ;
#136 = CARTESIAN_POINT ( 'NONE',  ( 0.0000000000000000000, 0.0000000000000000000, 0.5241642179041259300 ) ) ;
#137 = AXIS2_PLACEMENT_3D ( 'NONE', #136, #101, #100 ) ;
#138 = DIRECTION ( 'NONE',  ( 1.000000000000000000, 0.0000000000000000000, 0.0000000000000000000 ) ) ;
#139 = DIRECTION ( 'NONE',  ( -0.0000000000000000000, -0.0000000000000000000, 1.000000000000000000 ) ) ;
#140 = CARTESIAN_POINT ( 'NONE',  ( 0.0000000000000000000, 0.0000000000000000000, 0.5241642179041259300 ) ) ;
#141 = AXIS2_PLACEMENT_3D ( 'NONE', #140, #139, #138 ) ;
#142 = FACE_OUTER_BOUND ( 'NONE', #8, .T. ) ;
#143 = CARTESIAN_POINT ( 'NONE',  ( 0.02960650923488229000, 0.0000000000000000000, -113.6699961895956800 ) ) ;
#144 = AXIS2_PLACEMENT_3D ( 'NONE', #130, #129, #128 ) ;
#145 = AXIS2_PLACEMENT_3D ( 'NONE', #193, #170, #221 ) ;
#146 = FACE_OUTER_BOUND ( 'NONE', #78, .T. ) ;
#147 = AXIS2_PLACEMENT_3D ( 'NONE', #159, #153, #158 ) ;
#148 = FACE_OUTER_BOUND ( 'NONE', #20, .T. ) ;
#149 = LINE ( 'NONE', #178, #177 ) ;
#150 = CIRCLE ( 'NONE', #175, 115.0199999999999500 ) ;
#151 = DIRECTION ( 'NONE',  ( 1.000000000000000000, 0.0000000000000000000, 0.0000000000000000000 ) ) ;
#152 = FACE_OUTER_BOUND ( 'NONE', #105, .T. ) ;
#153 = DIRECTION ( 'NONE',  ( -0.0000000000000000000, -0.0000000000000000000, 1.000000000000000000 ) ) ;
#154 = AXIS2_PLACEMENT_3D ( 'NONE', #157, #192, #156 ) ;
#155 = CIRCLE ( 'NONE', #145, 12.55857864376269200 ) ;
#156 = DIRECTION ( 'NONE',  ( 1.000000000000000000, 0.0000000000000000000, 0.0000000000000000000 ) ) ;
#157 = CARTESIAN_POINT ( 'NONE',  ( 0.0000000000000000000, 0.0000000000000000000, 39.55484952932686600 ) ) ;
#158 = DIRECTION ( 'NONE',  ( 1.000000000000000000, 0.0000000000000000000, 0.0000000000000000000 ) ) ;
#159 = CARTESIAN_POINT ( 'NONE',  ( 0.0000000000000000000, 0.0000000000000000000, -1.349999999999997000 ) ) ;
#160 = DIRECTION ( 'NONE',  ( 1.000000000000000000, 0.0000000000000000000, 0.0000000000000000000 ) ) ;
#161 = DIRECTION ( 'NONE',  ( -0.0000000000000000000, -0.0000000000000000000, 1.000000000000000000 ) ) ;
#162 = CARTESIAN_POINT ( 'NONE',  ( 0.0000000000000000000, 0.0000000000000000000, -113.6699961895956800 ) ) ;
#163 = AXIS2_PLACEMENT_3D ( 'NONE', #162, #161, #160 ) ;
#164 = DIRECTION ( 'NONE',  ( -0.0000000000000000000, -0.0000000000000000000, 1.000000000000000000 ) ) ;
#165 = CARTESIAN_POINT ( 'NONE',  ( 12.69999999999999800, 0.0000000000000000000, 39.55484952932686600 ) ) ;
#166 = DIRECTION ( 'NONE',  ( 0.7071067811865519000, 0.0000000000000000000, 0.7071067811865431300 ) ) ;
#167 = VECTOR ( 'NONE', #166, 1000.000000000000000 ) ;
#168 = CARTESIAN_POINT ( 'NONE',  ( 12.55857864376269000, 0.0000000000000000000, -1.349999999999997000 ) ) ;
#169 = CYLINDRICAL_SURFACE ( 'NONE', #196, 12.69999999999999800 ) ;
#170 = DIRECTION ( 'NONE',  ( -0.0000000000000000000, -0.0000000000000000000, 1.000000000000000000 ) ) ;
#171 = LINE ( 'NONE', #165, #185 ) ;
#172 = DIRECTION ( 'NONE',  ( -1.000000000000000000, 1.224646799147353200E-016, 0.0000000000000000000 ) ) ;
#173 = DIRECTION ( 'NONE',  ( 1.224646799147353200E-016, 1.000000000000000000, 0.0000000000000000000 ) ) ;
#174 = CARTESIAN_POINT ( 'NONE',  ( -0.02960650923488229000, 3.625751676842514600E-018, -113.6699961895956800 ) ) ;
#175 = AXIS2_PLACEMENT_3D ( 'NONE', #174, #173, #172 ) ;
#176 = DIRECTION ( 'NONE',  ( -0.7071067811865519000, 8.659560562354987100E-017, 0.7071067811865431300 ) ) ;
#177 = VECTOR ( 'NONE', #176, 1000.000000000000000 ) ;
#178 = CARTESIAN_POINT ( 'NONE',  ( -12.55857864376269000, 1.537982313792428700E-015, -1.349999999999997000 ) ) ;
#179 = ADVANCED_BREP_SHAPE_REPRESENTATION ( '25005-E0W', ( #116, #73 ), #180 ) ;
#180 =( GEOMETRIC_REPRESENTATION_CONTEXT ( 3 ) GLOBAL_UNCERTAINTY_ASSIGNED_CONTEXT ( ( #181 ) ) GLOBAL_UNIT_ASSIGNED_CONTEXT ( ( #184, #183, #182 ) ) REPRESENTATION_CONTEXT ( 'NONE', 'WORKASPACE' ) );
#181 = UNCERTAINTY_MEASURE_WITH_UNIT (LENGTH_MEASURE( 1.000000000000000100E-005 ), #184, 'distance_accuracy_value', 'NONE');
#182 =( NAMED_UNIT ( * ) SI_UNIT ( $, .STERADIAN. ) SOLID_ANGLE_UNIT ( ) );
#183 =( NAMED_UNIT ( * ) PLANE_ANGLE_UNIT ( ) SI_UNIT ( $, .RADIAN. ) );
#184 =( LENGTH_UNIT ( ) NAMED_UNIT ( * ) SI_UNIT ( .MILLI., .METRE. ) );
#185 = VECTOR ( 'NONE', #164, 1000.000000000000000 ) ;
#186 = CYLINDRICAL_SURFACE ( 'NONE', #154, 12.69999999999999800 ) ;
#187 = DIRECTION ( 'NONE',  ( 1.000000000000000000, 0.0000000000000000000, 0.0000000000000000000 ) ) ;
#188 = CARTESIAN_POINT ( 'NONE',  ( 0.0000000000000000000, 0.0000000000000000000, -1.349999999999997000 ) ) ;
#189 = CARTESIAN_POINT ( 'NONE',  ( 0.0000000000000000000, 0.0000000000000000000, 1.350000000000000500 ) ) ;
#190 = CARTESIAN_POINT ( 'NONE',  ( 12.55857864376269000, 0.0000000000000000000, -1.349999999999997000 ) ) ;
#191 = DIRECTION ( 'NONE',  ( 1.000000000000000000, 0.0000000000000000000, 0.0000000000000000000 ) ) ;
#192 = DIRECTION ( 'NONE',  ( -0.0000000000000000000, -0.0000000000000000000, 1.000000000000000000 ) ) ;
#193 = CARTESIAN_POINT ( 'NONE',  ( 0.0000000000000000000, 0.0000000000000000000, 0.6655855741414390400 ) ) ;
#194 = FACE_OUTER_BOUND ( 'NONE', #21, .T. ) ;
#195 = DIRECTION ( 'NONE',  ( -0.0000000000000000000, -0.0000000000000000000, 1.000000000000000000 ) ) ;
#196 = AXIS2_PLACEMENT_3D ( 'NONE', #218, #217, #187 ) ;
#197 = CARTESIAN_POINT ( 'NONE',  ( -12.69999999999999800, 1.555301434917138200E-015, 0.5241642179041259300 ) ) ;
#198 = CARTESIAN_POINT ( 'NONE',  ( -12.69999999999999800, 1.555301434917138200E-015, 39.55484952932686600 ) ) ;
#199 = AXIS2_PLACEMENT_3D ( 'NONE', #229, #205, #191 ) ;
#200 = DIRECTION ( 'NONE',  ( 0.0000000000000000000, 0.0000000000000000000, -1.000000000000000000 ) ) ;
#201 = CIRCLE ( 'NONE', #220, 12.55857864376269200 ) ;
#202 = CARTESIAN_POINT ( 'NONE',  ( -12.55857864376269000, 1.546641874354783400E-015, -1.349999999999997000 ) ) ;
#203 = DIRECTION ( 'NONE',  ( -0.0000000000000000000, -0.0000000000000000000, 1.000000000000000000 ) ) ;
#204 = VECTOR ( 'NONE', #203, 1000.000000000000000 ) ;
#205 = DIRECTION ( 'NONE',  ( -0.0000000000000000000, -0.0000000000000000000, 1.000000000000000000 ) ) ;
#206 = FACE_OUTER_BOUND ( 'NONE', #96, .T. ) ;
#207 = CONICAL_SURFACE ( 'NONE', #226, 12.55857864376269000, 0.7853981633974545000 ) ;
#208 = CARTESIAN_POINT ( 'NONE',  ( -12.55857864376264400, 1.537982313792423500E-015, 0.6655855741414390400 ) ) ;
#209 = CARTESIAN_POINT ( 'NONE',  ( 0.0000000000000000000, 0.0000000000000000000, 0.5241642179041259300 ) ) ;
#210 = AXIS2_PLACEMENT_3D ( 'NONE', #209, #200, #227 ) ;
#211 = DIRECTION ( 'NONE',  ( -0.0000000000000000000, -0.0000000000000000000, 1.000000000000000000 ) ) ;
#212 = CONICAL_SURFACE ( 'NONE', #210, 12.69999999999999800, 0.7853981633974237400 ) ;
#213 = DIRECTION ( 'NONE',  ( 1.000000000000000000, 0.0000000000000000000, 0.0000000000000000000 ) ) ;
#214 = CARTESIAN_POINT ( 'NONE',  ( 12.55857864376264400, 0.0000000000000000000, 0.6655855741414390400 ) ) ;
#215 = CARTESIAN_POINT ( 'NONE',  ( -12.69999999999999800, 1.555301434917138200E-015, -1.208578643762690900 ) ) ;
#216 = CONICAL_SURFACE ( 'NONE', #147, 12.55857864376269000, 0.7853981633974545000 ) ;
#217 = DIRECTION ( 'NONE',  ( -0.0000000000000000000, -0.0000000000000000000, 1.000000000000000000 ) ) ;
#218 = CARTESIAN_POINT ( 'NONE',  ( 0.0000000000000000000, 0.0000000000000000000, 39.55484952932686600 ) ) ;
#219 = LINE ( 'NONE', #198, #204 ) ;
#220 = AXIS2_PLACEMENT_3D ( 'NONE', #228, #195, #213 ) ;
#221 = DIRECTION ( 'NONE',  ( 1.000000000000000000, 0.0000000000000000000, 0.0000000000000000000 ) ) ;
#222 = FACE_OUTER_BOUND ( 'NONE', #37, .T. ) ;
#223 = CIRCLE ( 'NONE', #199, 12.55857864376269000 ) ;
#224 = LINE ( 'NONE', #168, #167 ) ;
#225 = TOROIDAL_SURFACE ( 'NONE', #163, 0.02960650923488229000, 115.0199999999999500 ) ;
#226 = AXIS2_PLACEMENT_3D ( 'NONE', #188, #211, #151 ) ;
#227 = DIRECTION ( 'NONE',  ( -1.000000000000000000, 0.0000000000000000000, 0.0000000000000000000 ) ) ;
#228 = CARTESIAN_POINT ( 'NONE',  ( 0.0000000000000000000, 0.0000000000000000000, 0.6655855741414390400 ) ) ;
#229 = CARTESIAN_POINT ( 'NONE',  ( 0.0000000000000000000, 0.0000000000000000000, -1.349999999999997000 ) ) ;
#230 = PERSON_AND_ORGANIZATION ( #5, #231 ) ;
#231 = ORGANIZATION ( 'UNSPECIFIED', 'UNSPECIFIED', '' ) ;
#232 = APPROVAL_ROLE ( '' ) ;
#233 = APPROVAL ( #234, 'UNSPECIFIED' ) ;
#234 = APPROVAL_STATUS ( 'not_yet_approved' ) ;
#235 = PERSON_AND_ORGANIZATION ( #5, #231 ) ;
#236 = PRODUCT_DEFINITION ( 'UNKNOWN', '', #292, #237 ) ;
#237 = DESIGN_CONTEXT ( 'detailed design', #299, 'design' ) ;
#238 = CC_DESIGN_APPROVAL ( #246, ( #258 ) ) ;
#239 = APPROVAL_DATE_TIME ( #240, #246 ) ;
#240 = DATE_AND_TIME ( #241, #242 ) ;
#241 = CALENDAR_DATE ( 2012, 28, 9 ) ;
#242 = LOCAL_TIME ( 12, 16, 13.00000000000000000, #243 ) ;
#243 = COORDINATED_UNIVERSAL_TIME_OFFSET ( 5, 0, .BEHIND. ) ;
#244 = APPROVAL_PERSON_ORGANIZATION ( #248, #246, #245 ) ;
#245 = APPROVAL_ROLE ( '' ) ;
#246 = APPROVAL ( #247, 'UNSPECIFIED' ) ;
#247 = APPROVAL_STATUS ( 'not_yet_approved' ) ;
#248 = PERSON_AND_ORGANIZATION ( #5, #231 ) ;
#249 = CC_DESIGN_DATE_AND_TIME_ASSIGNMENT ( #251, #250, ( #258 ) ) ;
#250 = DATE_TIME_ROLE ( 'classification_date' ) ;
#251 = DATE_AND_TIME ( #252, #253 ) ;
#252 = CALENDAR_DATE ( 2012, 28, 9 ) ;
#253 = LOCAL_TIME ( 12, 16, 13.00000000000000000, #254 ) ;
#254 = COORDINATED_UNIVERSAL_TIME_OFFSET ( 5, 0, .BEHIND. ) ;
#255 = CC_DESIGN_PERSON_AND_ORGANIZATION_ASSIGNMENT ( #257, #256, ( #258 ) ) ;
#256 = PERSON_AND_ORGANIZATION_ROLE ( 'classification_officer' ) ;
#257 = PERSON_AND_ORGANIZATION ( #5, #231 ) ;
#258 = SECURITY_CLASSIFICATION ( '', '', #259 ) ;
#259 = SECURITY_CLASSIFICATION_LEVEL ( 'unclassified' ) ;
#260 = CC_DESIGN_PERSON_AND_ORGANIZATION_ASSIGNMENT ( #262, #261, ( #292 ) ) ;
#261 = PERSON_AND_ORGANIZATION_ROLE ( 'design_supplier' ) ;
#262 = PERSON_AND_ORGANIZATION ( #5, #231 ) ;
#263 = CC_DESIGN_PERSON_AND_ORGANIZATION_ASSIGNMENT ( #265, #264, ( #292 ) ) ;
#264 = PERSON_AND_ORGANIZATION_ROLE ( 'creator' ) ;
#265 = PERSON_AND_ORGANIZATION ( #5, #231 ) ;
#266 = CC_DESIGN_APPROVAL ( #274, ( #292 ) ) ;
#267 = APPROVAL_DATE_TIME ( #268, #274 ) ;
#268 = DATE_AND_TIME ( #269, #270 ) ;
#269 = CALENDAR_DATE ( 2012, 28, 9 ) ;
#270 = LOCAL_TIME ( 12, 16, 13.00000000000000000, #271 ) ;
#271 = COORDINATED_UNIVERSAL_TIME_OFFSET ( 5, 0, .BEHIND. ) ;
#272 = APPROVAL_PERSON_ORGANIZATION ( #291, #274, #273 ) ;
#273 = APPROVAL_ROLE ( '' ) ;
#274 = APPROVAL ( #290, 'UNSPECIFIED' ) ;
#275 = APPROVAL_DATE_TIME ( #276, #233 ) ;
#276 = DATE_AND_TIME ( #277, #278 ) ;
#277 = CALENDAR_DATE ( 2012, 28, 9 ) ;
#278 = LOCAL_TIME ( 12, 16, 13.00000000000000000, #279 ) ;
#279 = COORDINATED_UNIVERSAL_TIME_OFFSET ( 5, 0, .BEHIND. ) ;
#280 = APPROVAL_PERSON_ORGANIZATION ( #235, #233, #232 ) ;
#281 = CALENDAR_DATE ( 2012, 28, 9 ) ;
#282 = COORDINATED_UNIVERSAL_TIME_OFFSET ( 5, 0, .BEHIND. ) ;
#283 = CC_DESIGN_PERSON_AND_ORGANIZATION_ASSIGNMENT ( #285, #284, ( #236 ) ) ;
#284 = PERSON_AND_ORGANIZATION_ROLE ( 'creator' ) ;
#285 = PERSON_AND_ORGANIZATION ( #5, #231 ) ;
#286 = CC_DESIGN_APPROVAL ( #233, ( #236 ) ) ;
#287 = PRODUCT_DEFINITION_SHAPE ( 'NONE', 'NONE',  #236 ) ;
#288 = PRODUCT_RELATED_PRODUCT_CATEGORY ( 'detail', '', ( #4 ) ) ;
#289 = CC_DESIGN_SECURITY_CLASSIFICATION ( #258, ( #292 ) ) ;
#290 = APPROVAL_STATUS ( 'not_yet_approved' ) ;
#291 = PERSON_AND_ORGANIZATION ( #5, #231 ) ;
#292 = PRODUCT_DEFINITION_FORMATION_WITH_SPECIFIED_SOURCE ( 'ANY', '', #4, .NOT_KNOWN. ) ;
#293 = SHAPE_DEFINITION_REPRESENTATION ( #287, #179 ) ;
#294 = CC_DESIGN_DATE_AND_TIME_ASSIGNMENT ( #296, #295, ( #236 ) ) ;
#295 = DATE_TIME_ROLE ( 'creation_date' ) ;
#296 = DATE_AND_TIME ( #281, #297 ) ;
#297 = LOCAL_TIME ( 12, 16, 13.00000000000000000, #282 ) ;
#298 = APPLICATION_PROTOCOL_DEFINITION ( 'international standard', 'config_control_design', 1994, #299 ) ;
#299 = APPLICATION_CONTEXT ( 'configuration controlled 3d designs of mechanical parts and assemblies' ) ;
#300 = CC_DESIGN_PERSON_AND_ORGANIZATION_ASSIGNMENT ( #230, #301, ( #4 ) ) ;
#301 = PERSON_AND_ORGANIZATION_ROLE ( 'design_owner' ) ;
ENDSEC;
END-ISO-10303-21;
