ISO-10303-21;
HEADER;
FILE_DESCRIPTION (( 'STEP AP203' ),
    '1' );
FILE_NAME ('Web Model 46103_48929.step',
    '2017-03-01T20:55:40',
    ( '' ),
    ( '' ),
    'SwSTEP 2.0',
    'SolidWorks 2016',
    '' );
FILE_SCHEMA (( 'CONFIG_CONTROL_DESIGN' ));
ENDSEC;

DATA;
#1 = APPROVAL ( #55, 'UNSPECIFIED' ) ;
#2 = LINE ( 'NONE', #102, #233 ) ;
#3 = CC_DESIGN_PERSON_AND_ORGANIZATION_ASSIGNMENT ( #85, #38, ( #192 ) ) ;
#4 = DIRECTION ( 'NONE',  ( -0.0000000000000000000, -0.0000000000000000000, -1.000000000000000000 ) ) ;
#5 = PERSON_AND_ORGANIZATION ( #196, #210 ) ;
#6 = DIRECTION ( 'NONE',  ( 2.048885995248197400E-016, -1.000000000000000000, 0.0000000000000000000 ) ) ;
#7 = PERSON_AND_ORGANIZATION_ROLE ( 'creator' ) ;
#8 = DIRECTION ( 'NONE',  ( 2.048885995248197400E-016, -1.000000000000000000, 0.0000000000000000000 ) ) ;
#9 = PERSON_AND_ORGANIZATION ( #196, #210 ) ;
#10 = VERTEX_POINT ( 'NONE', #226 ) ;
#11 = VERTEX_POINT ( 'NONE', #123 ) ;
#12 = SECURITY_CLASSIFICATION ( '', '', #19 ) ;
#13 = DIRECTION ( 'NONE',  ( -0.0000000000000000000, 0.0000000000000000000, 1.000000000000000000 ) ) ;
#14 = CARTESIAN_POINT ( 'NONE',  ( 50.79999999999999700, 50.79999999999999700, 1.000000000000000000 ) ) ;
#15 = COORDINATED_UNIVERSAL_TIME_OFFSET ( 5, 0, .BEHIND. ) ;
#16 = FACE_OUTER_BOUND ( 'NONE', #110, .T. ) ;
#17 = SHAPE_DEFINITION_REPRESENTATION ( #25, #146 ) ;
#18 = DIRECTION ( 'NONE',  ( 1.000000000000000000, 2.048885995248197700E-016, -0.0000000000000000000 ) ) ;
#19 = SECURITY_CLASSIFICATION_LEVEL ( 'unclassified' ) ;
#20 = DIRECTION ( 'NONE',  ( -0.0000000000000000000, -0.0000000000000000000, -1.000000000000000000 ) ) ;
#21 = ORIENTED_EDGE ( 'NONE', *, *, #108, .F. ) ;
#22 = CC_DESIGN_PERSON_AND_ORGANIZATION_ASSIGNMENT ( #37, #142, ( #12 ) ) ;
#23 = AXIS2_PLACEMENT_3D ( 'NONE', #58, #140, #169 ) ;
#24 = VERTEX_POINT ( 'NONE', #119 ) ;
#25 = PRODUCT_DEFINITION_SHAPE ( 'NONE', 'NONE',  #227 ) ;
#26 = ORIENTED_EDGE ( 'NONE', *, *, #213, .F. ) ;
#27 = DATE_AND_TIME ( #70, #114 ) ;
#28 = LINE ( 'NONE', #183, #66 ) ;
#29 = PLANE ( 'NONE',  #95 ) ;
#30 = CARTESIAN_POINT ( 'NONE',  ( -50.79999999999999700, 50.79999999999999700, 1.000000000000000000 ) ) ;
#31 = ORIENTED_EDGE ( 'NONE', *, *, #136, .T. ) ;
#32 = PERSON_AND_ORGANIZATION ( #196, #210 ) ;
#33 = FACE_OUTER_BOUND ( 'NONE', #96, .T. ) ;
#34 = CC_DESIGN_DATE_AND_TIME_ASSIGNMENT ( #74, #120, ( #12 ) ) ;
#35 = ORIENTED_EDGE ( 'NONE', *, *, #193, .T. ) ;
#36 = DATE_TIME_ROLE ( 'creation_date' ) ;
#37 = PERSON_AND_ORGANIZATION ( #196, #210 ) ;
#38 = PERSON_AND_ORGANIZATION_ROLE ( 'design_supplier' ) ;
#39 = VECTOR ( 'NONE', #45, 1000.000000000000000 ) ;
#40 = CALENDAR_DATE ( 2017, 1, 3 ) ;
#41 = ORIENTED_EDGE ( 'NONE', *, *, #136, .F. ) ;
#42 = ORIENTED_EDGE ( 'NONE', *, *, #152, .F. ) ;
#43 = VECTOR ( 'NONE', #168, 1000.000000000000000 ) ;
#44 = APPROVAL ( #143, 'UNSPECIFIED' ) ;
#45 = DIRECTION ( 'NONE',  ( 1.000000000000000000, 1.365923996832131600E-016, 0.0000000000000000000 ) ) ;
#46 = AXIS2_PLACEMENT_3D ( 'NONE', #219, #18, #67 ) ;
#47 = DIRECTION ( 'NONE',  ( 1.365923996832131900E-016, -1.000000000000000000, 0.0000000000000000000 ) ) ;
#48 = PERSON_AND_ORGANIZATION_ROLE ( 'design_owner' ) ;
#49 = CARTESIAN_POINT ( 'NONE',  ( 50.79999999999999700, 50.79999999999999700, 1.000000000000000000 ) ) ;
#50 = DATE_AND_TIME ( #93, #141 ) ;
#51 = MECHANICAL_CONTEXT ( 'NONE', #82, 'mechanical' ) ;
#52 = ORIENTED_EDGE ( 'NONE', *, *, #148, .F. ) ;
#53 = APPROVAL_DATE_TIME ( #99, #1 ) ;
#54 = ORIENTED_EDGE ( 'NONE', *, *, #108, .T. ) ;
#55 = APPROVAL_STATUS ( 'not_yet_approved' ) ;
#56 = CARTESIAN_POINT ( 'NONE',  ( -50.79999999999997600, -50.79999999999999700, 1.000000000000000000 ) ) ;
#57 = APPROVAL_STATUS ( 'not_yet_approved' ) ;
#58 = CARTESIAN_POINT ( 'NONE',  ( 0.0000000000000000000, 0.0000000000000000000, 0.0000000000000000000 ) ) ;
#59 = CC_DESIGN_APPROVAL ( #44, ( #12 ) ) ;
#60 = APPROVAL_PERSON_ORGANIZATION ( #101, #1, #189 ) ;
#61 = ORIENTED_EDGE ( 'NONE', *, *, #117, .T. ) ;
#62 = PLANE ( 'NONE',  #145 ) ;
#63 = DIRECTION ( 'NONE',  ( 0.0000000000000000000, 0.0000000000000000000, 1.000000000000000000 ) ) ;
#64 = VERTEX_POINT ( 'NONE', #224 ) ;
#65 = CC_DESIGN_SECURITY_CLASSIFICATION ( #12, ( #192 ) ) ;
#66 = VECTOR ( 'NONE', #131, 1000.000000000000000 ) ;
#67 = DIRECTION ( 'NONE',  ( -2.048885995248197700E-016, 1.000000000000000000, 0.0000000000000000000 ) ) ;
#68 = DIRECTION ( 'NONE',  ( -1.365923996832131900E-016, 1.000000000000000000, -0.0000000000000000000 ) ) ;
#69 = AXIS2_PLACEMENT_3D ( 'NONE', #49, #97, #47 ) ;
#70 = CALENDAR_DATE ( 2017, 1, 3 ) ;
#71 = LINE ( 'NONE', #14, #218 ) ;
#72 = ORIENTED_EDGE ( 'NONE', *, *, #148, .T. ) ;
#73 = EDGE_LOOP ( 'NONE', ( #124, #151, #135, #173 ) ) ;
#74 = DATE_AND_TIME ( #122, #184 ) ;
#75 = UNCERTAINTY_MEASURE_WITH_UNIT (LENGTH_MEASURE( 1.000000000000000100E-005 ), #137, 'distance_accuracy_value', 'NONE');
#76 = ORIENTED_EDGE ( 'NONE', *, *, #204, .F. ) ;
#77 = LINE ( 'NONE', #112, #39 ) ;
#78 = PRODUCT_RELATED_PRODUCT_CATEGORY ( 'detail', '', ( #176 ) ) ;
#79 = DIRECTION ( 'NONE',  ( -0.0000000000000000000, -0.0000000000000000000, -1.000000000000000000 ) ) ;
#80 = PLANE ( 'NONE',  #69 ) ;
#81 = ORIENTED_EDGE ( 'NONE', *, *, #130, .F. ) ;
#82 = APPLICATION_CONTEXT ( 'configuration controlled 3d designs of mechanical parts and assemblies' ) ;
#83 = CARTESIAN_POINT ( 'NONE',  ( 0.0000000000000000000, 0.0000000000000000000, 1.000000000000000000 ) ) ;
#84 = DIRECTION ( 'NONE',  ( 1.000000000000000000, 0.0000000000000000000, 0.0000000000000000000 ) ) ;
#85 = PERSON_AND_ORGANIZATION ( #196, #210 ) ;
#86 = APPLICATION_PROTOCOL_DEFINITION ( 'international standard', 'config_control_design', 1994, #82 ) ;
#87 = VECTOR ( 'NONE', #20, 1000.000000000000000 ) ;
#88 = LOCAL_TIME ( 15, 55, 40.00000000000000000, #134 ) ;
#89 = APPROVAL_ROLE ( '' ) ;
#90 = PLANE ( 'NONE',  #46 ) ;
#91 = EDGE_LOOP ( 'NONE', ( #42, #76, #174, #156 ) ) ;
#92 = LINE ( 'NONE', #206, #43 ) ;
#93 = CALENDAR_DATE ( 2017, 1, 3 ) ;
#94 = ADVANCED_FACE ( 'NONE', ( #221 ), #208, .F. ) ;
#95 = AXIS2_PLACEMENT_3D ( 'NONE', #83, #13, #234 ) ;
#96 = EDGE_LOOP ( 'NONE', ( #31, #72, #35, #194 ) ) ;
#97 = DIRECTION ( 'NONE',  ( -1.000000000000000000, -1.365923996832131900E-016, 0.0000000000000000000 ) ) ;
#98 = CARTESIAN_POINT ( 'NONE',  ( -50.79999999999999700, 50.79999999999999700, 1.000000000000000000 ) ) ;
#99 = DATE_AND_TIME ( #150, #205 ) ;
#100 =( NAMED_UNIT ( * ) SI_UNIT ( $, .STERADIAN. ) SOLID_ANGLE_UNIT ( ) );
#101 = PERSON_AND_ORGANIZATION ( #196, #210 ) ;
#102 = CARTESIAN_POINT ( 'NONE',  ( -50.79999999999999700, 50.79999999999999700, 1.000000000000000000 ) ) ;
#103 = VERTEX_POINT ( 'NONE', #144 ) ;
#104 = APPROVAL_ROLE ( '' ) ;
#105 = CARTESIAN_POINT ( 'NONE',  ( 50.80000000000001100, -50.79999999999998300, 1.000000000000000000 ) ) ;
#106 = ORIENTED_EDGE ( 'NONE', *, *, #181, .T. ) ;
#107 = ORIENTED_EDGE ( 'NONE', *, *, #152, .T. ) ;
#108 = EDGE_CURVE ( 'NONE', #64, #24, #164, .T. ) ;
#109 = FACE_OUTER_BOUND ( 'NONE', #166, .T. ) ;
#110 = EDGE_LOOP ( 'NONE', ( #138, #178, #26, #106 ) ) ;
#111 = VECTOR ( 'NONE', #132, 1000.000000000000000 ) ;
#112 = CARTESIAN_POINT ( 'NONE',  ( -50.79999999999997600, -50.79999999999999700, 1.000000000000000000 ) ) ;
#113 = PLANE ( 'NONE',  #115 ) ;
#114 = LOCAL_TIME ( 15, 55, 40.00000000000000000, #177 ) ;
#115 = AXIS2_PLACEMENT_3D ( 'NONE', #98, #158, #201 ) ;
#116 =( NAMED_UNIT ( * ) PLANE_ANGLE_UNIT ( ) SI_UNIT ( $, .RADIAN. ) );
#117 = EDGE_CURVE ( 'NONE', #24, #197, #92, .T. ) ;
#118 = VECTOR ( 'NONE', #68, 1000.000000000000000 ) ;
#119 = CARTESIAN_POINT ( 'NONE',  ( -50.79999999999997600, -50.79999999999999700, 0.0000000000000000000 ) ) ;
#120 = DATE_TIME_ROLE ( 'classification_date' ) ;
#121 = APPLICATION_PROTOCOL_DEFINITION ( 'international standard', 'config_control_design', 1994, #165 ) ;
#122 = CALENDAR_DATE ( 2017, 1, 3 ) ;
#123 = CARTESIAN_POINT ( 'NONE',  ( -50.79999999999999700, 50.79999999999999700, 1.000000000000000000 ) ) ;
#124 = ORIENTED_EDGE ( 'NONE', *, *, #161, .T. ) ;
#125 = LINE ( 'NONE', #188, #118 ) ;
#126 = PERSON_AND_ORGANIZATION ( #196, #210 ) ;
#127 = VERTEX_POINT ( 'NONE', #207 ) ;
#128 =( GEOMETRIC_REPRESENTATION_CONTEXT ( 3 ) GLOBAL_UNCERTAINTY_ASSIGNED_CONTEXT ( ( #75 ) ) GLOBAL_UNIT_ASSIGNED_CONTEXT ( ( #137, #116, #100 ) ) REPRESENTATION_CONTEXT ( 'NONE', 'WORKASPACE' ) );
#129 = LINE ( 'NONE', #105, #87 ) ;
#130 = EDGE_CURVE ( 'NONE', #127, #197, #129, .T. ) ;
#131 = DIRECTION ( 'NONE',  ( -1.365923996832131900E-016, 1.000000000000000000, -0.0000000000000000000 ) ) ;
#132 = DIRECTION ( 'NONE',  ( -1.000000000000000000, -0.0000000000000000000, -0.0000000000000000000 ) ) ;
#133 = CARTESIAN_POINT ( 'NONE',  ( -50.79999999999999700, 50.79999999999999700, 1.000000000000000000 ) ) ;
#134 = COORDINATED_UNIVERSAL_TIME_OFFSET ( 5, 0, .BEHIND. ) ;
#135 = ORIENTED_EDGE ( 'NONE', *, *, #193, .F. ) ;
#136 = EDGE_CURVE ( 'NONE', #11, #64, #2, .T. ) ;
#137 =( LENGTH_UNIT ( ) NAMED_UNIT ( * ) SI_UNIT ( .MILLI., .METRE. ) );
#138 = ORIENTED_EDGE ( 'NONE', *, *, #204, .T. ) ;
#139 = ADVANCED_FACE ( 'NONE', ( #191 ), #90, .F. ) ;
#140 = DIRECTION ( 'NONE',  ( -0.0000000000000000000, 0.0000000000000000000, 1.000000000000000000 ) ) ;
#141 = LOCAL_TIME ( 15, 55, 40.00000000000000000, #200 ) ;
#142 = PERSON_AND_ORGANIZATION_ROLE ( 'classification_officer' ) ;
#143 = APPROVAL_STATUS ( 'not_yet_approved' ) ;
#144 = CARTESIAN_POINT ( 'NONE',  ( -50.79999999999999700, 50.79999999999999700, 0.0000000000000000000 ) ) ;
#145 = AXIS2_PLACEMENT_3D ( 'NONE', #216, #155, #199 ) ;
#146 = ADVANCED_BREP_SHAPE_REPRESENTATION ( 'Web Model 46103_48929', ( #237, #202 ), #128 ) ;
#147 = CC_DESIGN_APPROVAL ( #1, ( #227 ) ) ;
#148 = EDGE_CURVE ( 'NONE', #64, #127, #77, .T. ) ;
#149 = APPROVAL_DATE_TIME ( #27, #44 ) ;
#150 = CALENDAR_DATE ( 2017, 1, 3 ) ;
#151 = ORIENTED_EDGE ( 'NONE', *, *, #181, .F. ) ;
#152 = EDGE_CURVE ( 'NONE', #103, #24, #187, .T. ) ;
#153 = LINE ( 'NONE', #133, #209 ) ;
#154 = PERSON_AND_ORGANIZATION ( #196, #210 ) ;
#155 = DIRECTION ( 'NONE',  ( -1.365923996832131600E-016, 1.000000000000000000, 0.0000000000000000000 ) ) ;
#156 = ORIENTED_EDGE ( 'NONE', *, *, #117, .F. ) ;
#157 = DESIGN_CONTEXT ( 'detailed design', #165, 'design' ) ;
#158 = DIRECTION ( 'NONE',  ( 0.0000000000000000000, -1.000000000000000000, 0.0000000000000000000 ) ) ;
#159 = EDGE_LOOP ( 'NONE', ( #107, #21, #41, #186 ) ) ;
#160 = CC_DESIGN_PERSON_AND_ORGANIZATION_ASSIGNMENT ( #9, #7, ( #227 ) ) ;
#161 = EDGE_CURVE ( 'NONE', #197, #167, #125, .T. ) ;
#162 = VECTOR ( 'NONE', #182, 1000.000000000000000 ) ;
#163 = CARTESIAN_POINT ( 'NONE',  ( -50.79999999999999700, 50.79999999999999700, 0.0000000000000000000 ) ) ;
#164 = LINE ( 'NONE', #56, #228 ) ;
#165 = APPLICATION_CONTEXT ( 'configuration controlled 3d designs of mechanical parts and assemblies' ) ;
#166 = EDGE_LOOP ( 'NONE', ( #61, #81, #52, #54 ) ) ;
#167 = VERTEX_POINT ( 'NONE', #198 ) ;
#168 = DIRECTION ( 'NONE',  ( 1.000000000000000000, 1.365923996832131600E-016, 0.0000000000000000000 ) ) ;
#169 = DIRECTION ( 'NONE',  ( 1.000000000000000000, 0.0000000000000000000, 0.0000000000000000000 ) ) ;
#170 = CLOSED_SHELL ( 'NONE', ( #139, #222, #172, #220, #175, #94 ) ) ;
#171 = LINE ( 'NONE', #30, #111 ) ;
#172 = ADVANCED_FACE ( 'NONE', ( #180 ), #80, .F. ) ;
#173 = ORIENTED_EDGE ( 'NONE', *, *, #130, .T. ) ;
#174 = ORIENTED_EDGE ( 'NONE', *, *, #161, .F. ) ;
#175 = ADVANCED_FACE ( 'NONE', ( #33 ), #29, .T. ) ;
#176 = PRODUCT ( 'Web Model 46103_48929', 'Web Model 46103_48929', '', ( #51 ) ) ;
#177 = COORDINATED_UNIVERSAL_TIME_OFFSET ( 5, 0, .BEHIND. ) ;
#178 = ORIENTED_EDGE ( 'NONE', *, *, #231, .F. ) ;
#179 = CC_DESIGN_DATE_AND_TIME_ASSIGNMENT ( #50, #36, ( #227 ) ) ;
#180 = FACE_OUTER_BOUND ( 'NONE', #73, .T. ) ;
#181 = EDGE_CURVE ( 'NONE', #10, #167, #71, .T. ) ;
#182 = DIRECTION ( 'NONE',  ( -1.000000000000000000, -0.0000000000000000000, -0.0000000000000000000 ) ) ;
#183 = CARTESIAN_POINT ( 'NONE',  ( 50.79999999999999700, 50.79999999999999700, 1.000000000000000000 ) ) ;
#184 = LOCAL_TIME ( 15, 55, 40.00000000000000000, #232 ) ;
#185 = CARTESIAN_POINT ( 'NONE',  ( 0.0000000000000000000, 0.0000000000000000000, 0.0000000000000000000 ) ) ;
#186 = ORIENTED_EDGE ( 'NONE', *, *, #231, .T. ) ;
#187 = LINE ( 'NONE', #163, #230 ) ;
#188 = CARTESIAN_POINT ( 'NONE',  ( 50.79999999999999700, 50.79999999999999700, 0.0000000000000000000 ) ) ;
#189 = APPROVAL_ROLE ( '' ) ;
#190 = APPROVAL_DATE_TIME ( #235, #203 ) ;
#191 = FACE_OUTER_BOUND ( 'NONE', #159, .T. ) ;
#192 = PRODUCT_DEFINITION_FORMATION_WITH_SPECIFIED_SOURCE ( 'ANY', '', #176, .NOT_KNOWN. ) ;
#193 = EDGE_CURVE ( 'NONE', #127, #10, #28, .T. ) ;
#194 = ORIENTED_EDGE ( 'NONE', *, *, #213, .T. ) ;
#195 = APPROVAL_PERSON_ORGANIZATION ( #5, #203, #89 ) ;
#196 = PERSON ( 'UNSPECIFIED', 'UNSPECIFIED', 'UNSPECIFIED', ('UNSPECIFIED'), ('UNSPECIFIED'), ('UNSPECIFIED') ) ;
#197 = VERTEX_POINT ( 'NONE', #217 ) ;
#198 = CARTESIAN_POINT ( 'NONE',  ( 50.79999999999999700, 50.79999999999999700, 0.0000000000000000000 ) ) ;
#199 = DIRECTION ( 'NONE',  ( -1.000000000000000000, -1.365923996832131600E-016, 0.0000000000000000000 ) ) ;
#200 = COORDINATED_UNIVERSAL_TIME_OFFSET ( 5, 0, .BEHIND. ) ;
#201 = DIRECTION ( 'NONE',  ( 0.0000000000000000000, -0.0000000000000000000, -1.000000000000000000 ) ) ;
#202 = AXIS2_PLACEMENT_3D ( 'NONE', #185, #63, #84 ) ;
#203 = APPROVAL ( #57, 'UNSPECIFIED' ) ;
#204 = EDGE_CURVE ( 'NONE', #167, #103, #215, .T. ) ;
#205 = LOCAL_TIME ( 15, 55, 40.00000000000000000, #15 ) ;
#206 = CARTESIAN_POINT ( 'NONE',  ( -50.79999999999997600, -50.79999999999999700, 0.0000000000000000000 ) ) ;
#207 = CARTESIAN_POINT ( 'NONE',  ( 50.80000000000001100, -50.79999999999998300, 1.000000000000000000 ) ) ;
#208 = PLANE ( 'NONE',  #23 ) ;
#209 = VECTOR ( 'NONE', #236, 1000.000000000000000 ) ;
#210 = ORGANIZATION ( 'UNSPECIFIED', 'UNSPECIFIED', '' ) ;
#211 = CC_DESIGN_PERSON_AND_ORGANIZATION_ASSIGNMENT ( #154, #48, ( #176 ) ) ;
#212 = CC_DESIGN_APPROVAL ( #203, ( #192 ) ) ;
#213 = EDGE_CURVE ( 'NONE', #10, #11, #171, .T. ) ;
#214 = CARTESIAN_POINT ( 'NONE',  ( -50.79999999999999700, 50.79999999999999700, 0.0000000000000000000 ) ) ;
#215 = LINE ( 'NONE', #214, #162 ) ;
#216 = CARTESIAN_POINT ( 'NONE',  ( -50.79999999999997600, -50.79999999999999700, 1.000000000000000000 ) ) ;
#217 = CARTESIAN_POINT ( 'NONE',  ( 50.80000000000001100, -50.79999999999998300, 0.0000000000000000000 ) ) ;
#218 = VECTOR ( 'NONE', #79, 1000.000000000000000 ) ;
#219 = CARTESIAN_POINT ( 'NONE',  ( -50.79999999999999700, 50.79999999999999700, 1.000000000000000000 ) ) ;
#220 = ADVANCED_FACE ( 'NONE', ( #16 ), #113, .F. ) ;
#221 = FACE_OUTER_BOUND ( 'NONE', #91, .T. ) ;
#222 = ADVANCED_FACE ( 'NONE', ( #109 ), #62, .F. ) ;
#223 = PERSON_AND_ORGANIZATION_ROLE ( 'creator' ) ;
#224 = CARTESIAN_POINT ( 'NONE',  ( -50.79999999999997600, -50.79999999999999700, 1.000000000000000000 ) ) ;
#225 = APPROVAL_PERSON_ORGANIZATION ( #32, #44, #104 ) ;
#226 = CARTESIAN_POINT ( 'NONE',  ( 50.79999999999999700, 50.79999999999999700, 1.000000000000000000 ) ) ;
#227 = PRODUCT_DEFINITION ( 'UNKNOWN', '', #192, #157 ) ;
#228 = VECTOR ( 'NONE', #4, 1000.000000000000000 ) ;
#229 = CC_DESIGN_PERSON_AND_ORGANIZATION_ASSIGNMENT ( #126, #223, ( #192 ) ) ;
#230 = VECTOR ( 'NONE', #6, 1000.000000000000000 ) ;
#231 = EDGE_CURVE ( 'NONE', #11, #103, #153, .T. ) ;
#232 = COORDINATED_UNIVERSAL_TIME_OFFSET ( 5, 0, .BEHIND. ) ;
#233 = VECTOR ( 'NONE', #8, 1000.000000000000000 ) ;
#234 = DIRECTION ( 'NONE',  ( 1.000000000000000000, 0.0000000000000000000, 0.0000000000000000000 ) ) ;
#235 = DATE_AND_TIME ( #40, #88 ) ;
#236 = DIRECTION ( 'NONE',  ( -0.0000000000000000000, -0.0000000000000000000, -1.000000000000000000 ) ) ;
#237 = MANIFOLD_SOLID_BREP ( 'Boss-Extrude1', #170 ) ;
ENDSEC;
END-ISO-10303-21;
