ISO-10303-21;
HEADER;
FILE_DESCRIPTION (( 'STEP AP203' ),
    '1' );
FILE_NAME ('Web Model 68157_15992.step',
    '2020-10-21T18:38:37',
    ( '' ),
    ( '' ),
    'SwSTEP 2.0',
    'SolidWorks 2018',
    '' );
FILE_SCHEMA (( 'CONFIG_CONTROL_DESIGN' ));
ENDSEC;

DATA;
#1 = ORIENTED_EDGE ( 'NONE', *, *, #102, .F. ) ;
#2 = AXIS2_PLACEMENT_3D ( 'NONE', #99, #144, #34 ) ;
#3 = CALENDAR_DATE ( 2020, 21, 10 ) ;
#4 = DIRECTION ( 'NONE',  ( -0.0000000000000000000, -0.0000000000000000000, -1.000000000000000000 ) ) ;
#5 = ORIENTED_EDGE ( 'NONE', *, *, #68, .F. ) ;
#6 = PERSON_AND_ORGANIZATION ( #57, #81 ) ;
#7 = APPROVAL_STATUS ( 'not_yet_approved' ) ;
#8 =( NAMED_UNIT ( * ) PLANE_ANGLE_UNIT ( ) SI_UNIT ( $, .RADIAN. ) );
#9 = ORIENTED_EDGE ( 'NONE', *, *, #25, .T. ) ;
#10 = EDGE_CURVE ( 'NONE', #105, #174, #71, .T. ) ;
#11 = AXIS2_PLACEMENT_3D ( 'NONE', #63, #97, #38 ) ;
#12 = CIRCLE ( 'NONE', #2, 6.349999999999999645 ) ;
#13 = CALENDAR_DATE ( 2020, 21, 10 ) ;
#14 = AXIS2_PLACEMENT_3D ( 'NONE', #172, #130, #103 ) ;
#15 = ADVANCED_FACE ( 'NONE', ( #110 ), #94, .T. ) ;
#16 = PLANE ( 'NONE',  #41 ) ;
#17 = DATE_AND_TIME ( #121, #56 ) ;
#18 = APPROVAL_STATUS ( 'not_yet_approved' ) ;
#19 = CC_DESIGN_PERSON_AND_ORGANIZATION_ASSIGNMENT ( #127, #132, ( #119 ) ) ;
#20 = APPROVAL_STATUS ( 'not_yet_approved' ) ;
#21 = APPROVAL_ROLE ( '' ) ;
#22 = DIRECTION ( 'NONE',  ( 1.000000000000000000, 0.0000000000000000000, -0.0000000000000000000 ) ) ;
#23 = CARTESIAN_POINT ( 'NONE',  ( 6.349999999999999645, 7.776507174585690191E-16, 3.180000000000000160 ) ) ;
#24 = EDGE_LOOP ( 'NONE', ( #124, #163 ) ) ;
#25 = EDGE_CURVE ( 'NONE', #146, #136, #55, .T. ) ;
#26 = PERSON_AND_ORGANIZATION ( #57, #81 ) ;
#27 = ADVANCED_FACE ( 'NONE', ( #140 ), #16, .F. ) ;
#28 = CC_DESIGN_PERSON_AND_ORGANIZATION_ASSIGNMENT ( #90, #115, ( #78 ) ) ;
#29 = ADVANCED_FACE ( 'NONE', ( #70 ), #152, .T. ) ;
#30 = UNCERTAINTY_MEASURE_WITH_UNIT (LENGTH_MEASURE( 1.000000000000000082E-05 ), #54, 'distance_accuracy_value', 'NONE');
#31 = CC_DESIGN_PERSON_AND_ORGANIZATION_ASSIGNMENT ( #80, #74, ( #164 ) ) ;
#32 = DIRECTION ( 'NONE',  ( 1.000000000000000000, 0.0000000000000000000, 0.0000000000000000000 ) ) ;
#33 = VECTOR ( 'NONE', #4, 1000.000000000000000 ) ;
#34 = DIRECTION ( 'NONE',  ( 1.000000000000000000, 0.0000000000000000000, 0.0000000000000000000 ) ) ;
#35 = PERSON_AND_ORGANIZATION ( #57, #81 ) ;
#36 = APPROVAL_ROLE ( '' ) ;
#37 = DIRECTION ( 'NONE',  ( 0.0000000000000000000, 0.0000000000000000000, 1.000000000000000000 ) ) ;
#38 = DIRECTION ( 'NONE',  ( 1.000000000000000000, 0.0000000000000000000, 0.0000000000000000000 ) ) ;
#39 = APPROVAL ( #18, 'UNSPECIFIED' ) ;
#40 = EDGE_LOOP ( 'NONE', ( #5, #45 ) ) ;
#41 = AXIS2_PLACEMENT_3D ( 'NONE', #141, #166, #50 ) ;
#42 = COORDINATED_UNIVERSAL_TIME_OFFSET ( 5, 0, .BEHIND. ) ;
#43 = ORIENTED_EDGE ( 'NONE', *, *, #142, .T. ) ;
#44 = PERSON_AND_ORGANIZATION ( #57, #81 ) ;
#45 = ORIENTED_EDGE ( 'NONE', *, *, #142, .F. ) ;
#46 = ADVANCED_BREP_SHAPE_REPRESENTATION ( 'Web Model 68157_15992', ( #107, #11 ), #159 ) ;
#47 = ORIENTED_EDGE ( 'NONE', *, *, #25, .F. ) ;
#48 = DIRECTION ( 'NONE',  ( -0.0000000000000000000, -0.0000000000000000000, -1.000000000000000000 ) ) ;
#49 = CALENDAR_DATE ( 2020, 21, 10 ) ;
#50 = DIRECTION ( 'NONE',  ( 1.000000000000000000, 0.0000000000000000000, -0.0000000000000000000 ) ) ;
#51 = CARTESIAN_POINT ( 'NONE',  ( -6.349999999999999645, 0.0000000000000000000, 0.0000000000000000000 ) ) ;
#52 = CIRCLE ( 'NONE', #14, 6.349999999999999645 ) ;
#53 = DIRECTION ( 'NONE',  ( 0.0000000000000000000, 0.0000000000000000000, 1.000000000000000000 ) ) ;
#54 =( LENGTH_UNIT ( ) NAMED_UNIT ( * ) SI_UNIT ( .MILLI., .METRE. ) );
#55 = LINE ( 'NONE', #170, #91 ) ;
#56 = LOCAL_TIME ( 14, 38, 37.00000000000000000, #109 ) ;
#57 = PERSON ( 'UNSPECIFIED', 'UNSPECIFIED', 'UNSPECIFIED', ('UNSPECIFIED'), ('UNSPECIFIED'), ('UNSPECIFIED') ) ;
#58 = CC_DESIGN_APPROVAL ( #151, ( #78 ) ) ;
#59 = LOCAL_TIME ( 14, 38, 37.00000000000000000, #129 ) ;
#60 = APPROVAL_DATE_TIME ( #162, #108 ) ;
#61 = CC_DESIGN_DATE_AND_TIME_ASSIGNMENT ( #17, #171, ( #164 ) ) ;
#62 = DESIGN_CONTEXT ( 'detailed design', #147, 'design' ) ;
#63 = CARTESIAN_POINT ( 'NONE',  ( 0.0000000000000000000, 0.0000000000000000000, 0.0000000000000000000 ) ) ;
#64 = LOCAL_TIME ( 14, 38, 37.00000000000000000, #93 ) ;
#65 =( NAMED_UNIT ( * ) SI_UNIT ( $, .STERADIAN. ) SOLID_ANGLE_UNIT ( ) );
#66 = APPLICATION_CONTEXT ( 'configuration controlled 3d designs of mechanical parts and assemblies' ) ;
#67 = DIRECTION ( 'NONE',  ( 1.000000000000000000, 0.0000000000000000000, 0.0000000000000000000 ) ) ;
#68 = EDGE_CURVE ( 'NONE', #174, #136, #138, .T. ) ;
#69 = CLOSED_SHELL ( 'NONE', ( #15, #73, #29, #27 ) ) ;
#70 = FACE_OUTER_BOUND ( 'NONE', #24, .T. ) ;
#71 = LINE ( 'NONE', #82, #33 ) ;
#72 = CC_DESIGN_DATE_AND_TIME_ASSIGNMENT ( #169, #154, ( #78 ) ) ;
#73 = ADVANCED_FACE ( 'NONE', ( #98 ), #75, .T. ) ;
#74 = PERSON_AND_ORGANIZATION_ROLE ( 'classification_officer' ) ;
#75 = CYLINDRICAL_SURFACE ( 'NONE', #95, 6.349999999999999645 ) ;
#76 = APPROVAL_PERSON_ORGANIZATION ( #44, #39, #114 ) ;
#77 = DIRECTION ( 'NONE',  ( -0.0000000000000000000, -0.0000000000000000000, -1.000000000000000000 ) ) ;
#78 = PRODUCT_DEFINITION ( 'UNKNOWN', '', #79, #62 ) ;
#79 = PRODUCT_DEFINITION_FORMATION_WITH_SPECIFIED_SOURCE ( 'ANY', '', #119, .NOT_KNOWN. ) ;
#80 = PERSON_AND_ORGANIZATION ( #57, #81 ) ;
#81 = ORGANIZATION ( 'UNSPECIFIED', 'UNSPECIFIED', '' ) ;
#82 = CARTESIAN_POINT ( 'NONE',  ( -6.349999999999999645, 0.0000000000000000000, 3.180000000000000160 ) ) ;
#83 = APPROVAL_DATE_TIME ( #125, #39 ) ;
#84 = CARTESIAN_POINT ( 'NONE',  ( 0.0000000000000000000, 0.0000000000000000000, 0.0000000000000000000 ) ) ;
#85 = MECHANICAL_CONTEXT ( 'NONE', #66, 'mechanical' ) ;
#86 = CARTESIAN_POINT ( 'NONE',  ( 0.0000000000000000000, 0.0000000000000000000, 3.180000000000000160 ) ) ;
#87 = CARTESIAN_POINT ( 'NONE',  ( 6.349999999999999645, 7.776507174585690191E-16, 0.0000000000000000000 ) ) ;
#88 = AXIS2_PLACEMENT_3D ( 'NONE', #86, #173, #67 ) ;
#89 = PERSON_AND_ORGANIZATION ( #57, #81 ) ;
#90 = PERSON_AND_ORGANIZATION ( #57, #81 ) ;
#91 = VECTOR ( 'NONE', #48, 1000.000000000000000 ) ;
#92 = APPROVAL_DATE_TIME ( #135, #151 ) ;
#93 = COORDINATED_UNIVERSAL_TIME_OFFSET ( 5, 0, .BEHIND. ) ;
#94 = CYLINDRICAL_SURFACE ( 'NONE', #167, 6.349999999999999645 ) ;
#95 = AXIS2_PLACEMENT_3D ( 'NONE', #157, #77, #118 ) ;
#96 = CC_DESIGN_APPROVAL ( #39, ( #164 ) ) ;
#97 = DIRECTION ( 'NONE',  ( 0.0000000000000000000, 0.0000000000000000000, 1.000000000000000000 ) ) ;
#98 = FACE_OUTER_BOUND ( 'NONE', #168, .T. ) ;
#99 = CARTESIAN_POINT ( 'NONE',  ( 0.0000000000000000000, 0.0000000000000000000, 3.180000000000000160 ) ) ;
#100 = APPLICATION_PROTOCOL_DEFINITION ( 'international standard', 'config_control_design', 1994, #66 ) ;
#101 = PERSON_AND_ORGANIZATION_ROLE ( 'design_supplier' ) ;
#102 = EDGE_CURVE ( 'NONE', #146, #105, #150, .T. ) ;
#103 = DIRECTION ( 'NONE',  ( 1.000000000000000000, 0.0000000000000000000, 0.0000000000000000000 ) ) ;
#104 = EDGE_LOOP ( 'NONE', ( #1, #9, #43, #133 ) ) ;
#105 = VERTEX_POINT ( 'NONE', #156 ) ;
#106 = COORDINATED_UNIVERSAL_TIME_OFFSET ( 5, 0, .BEHIND. ) ;
#107 = MANIFOLD_SOLID_BREP ( 'Boss-Extrude1', #69 ) ;
#108 = APPROVAL ( #7, 'UNSPECIFIED' ) ;
#109 = COORDINATED_UNIVERSAL_TIME_OFFSET ( 5, 0, .BEHIND. ) ;
#110 = FACE_OUTER_BOUND ( 'NONE', #104, .T. ) ;
#111 = DIRECTION ( 'NONE',  ( -0.0000000000000000000, -0.0000000000000000000, -1.000000000000000000 ) ) ;
#112 = ORIENTED_EDGE ( 'NONE', *, *, #10, .T. ) ;
#113 = AXIS2_PLACEMENT_3D ( 'NONE', #131, #37, #22 ) ;
#114 = APPROVAL_ROLE ( '' ) ;
#115 = PERSON_AND_ORGANIZATION_ROLE ( 'creator' ) ;
#116 = PERSON_AND_ORGANIZATION_ROLE ( 'creator' ) ;
#117 = SECURITY_CLASSIFICATION_LEVEL ( 'unclassified' ) ;
#118 = DIRECTION ( 'NONE',  ( -1.000000000000000000, 0.0000000000000000000, 0.0000000000000000000 ) ) ;
#119 = PRODUCT ( 'Web Model 68157_15992', 'Web Model 68157_15992', '', ( #85 ) ) ;
#120 = CC_DESIGN_APPROVAL ( #108, ( #79 ) ) ;
#121 = CALENDAR_DATE ( 2020, 21, 10 ) ;
#122 = EDGE_CURVE ( 'NONE', #105, #146, #12, .T. ) ;
#123 = CC_DESIGN_SECURITY_CLASSIFICATION ( #164, ( #79 ) ) ;
#124 = ORIENTED_EDGE ( 'NONE', *, *, #122, .T. ) ;
#125 = DATE_AND_TIME ( #49, #145 ) ;
#126 = CC_DESIGN_PERSON_AND_ORGANIZATION_ASSIGNMENT ( #26, #116, ( #79 ) ) ;
#127 = PERSON_AND_ORGANIZATION ( #57, #81 ) ;
#128 = DIRECTION ( 'NONE',  ( -1.000000000000000000, 0.0000000000000000000, 0.0000000000000000000 ) ) ;
#129 = COORDINATED_UNIVERSAL_TIME_OFFSET ( 5, 0, .BEHIND. ) ;
#130 = DIRECTION ( 'NONE',  ( 0.0000000000000000000, 0.0000000000000000000, 1.000000000000000000 ) ) ;
#131 = CARTESIAN_POINT ( 'NONE',  ( 0.0000000000000000000, 0.0000000000000000000, 3.180000000000000160 ) ) ;
#132 = PERSON_AND_ORGANIZATION_ROLE ( 'design_owner' ) ;
#133 = ORIENTED_EDGE ( 'NONE', *, *, #10, .F. ) ;
#134 = PRODUCT_RELATED_PRODUCT_CATEGORY ( 'detail', '', ( #119 ) ) ;
#135 = DATE_AND_TIME ( #3, #64 ) ;
#136 = VERTEX_POINT ( 'NONE', #87 ) ;
#137 = CC_DESIGN_PERSON_AND_ORGANIZATION_ASSIGNMENT ( #6, #101, ( #79 ) ) ;
#138 = CIRCLE ( 'NONE', #149, 6.349999999999999645 ) ;
#139 = CARTESIAN_POINT ( 'NONE',  ( 0.0000000000000000000, 0.0000000000000000000, 3.180000000000000160 ) ) ;
#140 = FACE_OUTER_BOUND ( 'NONE', #40, .T. ) ;
#141 = CARTESIAN_POINT ( 'NONE',  ( 0.0000000000000000000, 0.0000000000000000000, 0.0000000000000000000 ) ) ;
#142 = EDGE_CURVE ( 'NONE', #136, #174, #52, .T. ) ;
#143 = ORIENTED_EDGE ( 'NONE', *, *, #68, .T. ) ;
#144 = DIRECTION ( 'NONE',  ( 0.0000000000000000000, 0.0000000000000000000, 1.000000000000000000 ) ) ;
#145 = LOCAL_TIME ( 14, 38, 37.00000000000000000, #106 ) ;
#146 = VERTEX_POINT ( 'NONE', #23 ) ;
#147 = APPLICATION_CONTEXT ( 'configuration controlled 3d designs of mechanical parts and assemblies' ) ;
#148 = CALENDAR_DATE ( 2020, 21, 10 ) ;
#149 = AXIS2_PLACEMENT_3D ( 'NONE', #84, #53, #32 ) ;
#150 = CIRCLE ( 'NONE', #88, 6.349999999999999645 ) ;
#151 = APPROVAL ( #20, 'UNSPECIFIED' ) ;
#152 = PLANE ( 'NONE',  #113 ) ;
#153 = ORIENTED_EDGE ( 'NONE', *, *, #122, .F. ) ;
#154 = DATE_TIME_ROLE ( 'creation_date' ) ;
#155 = SHAPE_DEFINITION_REPRESENTATION ( #161, #46 ) ;
#156 = CARTESIAN_POINT ( 'NONE',  ( -6.349999999999999645, 0.0000000000000000000, 3.180000000000000160 ) ) ;
#157 = CARTESIAN_POINT ( 'NONE',  ( 0.0000000000000000000, 0.0000000000000000000, 3.180000000000000160 ) ) ;
#158 = APPLICATION_PROTOCOL_DEFINITION ( 'international standard', 'config_control_design', 1994, #147 ) ;
#159 =( GEOMETRIC_REPRESENTATION_CONTEXT ( 3 ) GLOBAL_UNCERTAINTY_ASSIGNED_CONTEXT ( ( #30 ) ) GLOBAL_UNIT_ASSIGNED_CONTEXT ( ( #54, #8, #65 ) ) REPRESENTATION_CONTEXT ( 'NONE', 'WORKASPACE' ) );
#160 = APPROVAL_PERSON_ORGANIZATION ( #89, #151, #36 ) ;
#161 = PRODUCT_DEFINITION_SHAPE ( 'NONE', 'NONE',  #78 ) ;
#162 = DATE_AND_TIME ( #148, #59 ) ;
#163 = ORIENTED_EDGE ( 'NONE', *, *, #102, .T. ) ;
#164 = SECURITY_CLASSIFICATION ( '', '', #117 ) ;
#165 = LOCAL_TIME ( 14, 38, 37.00000000000000000, #42 ) ;
#166 = DIRECTION ( 'NONE',  ( 0.0000000000000000000, 0.0000000000000000000, 1.000000000000000000 ) ) ;
#167 = AXIS2_PLACEMENT_3D ( 'NONE', #139, #111, #128 ) ;
#168 = EDGE_LOOP ( 'NONE', ( #47, #153, #112, #143 ) ) ;
#169 = DATE_AND_TIME ( #13, #165 ) ;
#170 = CARTESIAN_POINT ( 'NONE',  ( 6.349999999999999645, 7.776507174585690191E-16, 3.180000000000000160 ) ) ;
#171 = DATE_TIME_ROLE ( 'classification_date' ) ;
#172 = CARTESIAN_POINT ( 'NONE',  ( 0.0000000000000000000, 0.0000000000000000000, 0.0000000000000000000 ) ) ;
#173 = DIRECTION ( 'NONE',  ( 0.0000000000000000000, 0.0000000000000000000, 1.000000000000000000 ) ) ;
#174 = VERTEX_POINT ( 'NONE', #51 ) ;
#175 = APPROVAL_PERSON_ORGANIZATION ( #35, #108, #21 ) ;
ENDSEC;
END-ISO-10303-21;
