ISO-10303-21;
HEADER;
FILE_DESCRIPTION (( 'STEP AP203' ),
    '1' );
FILE_NAME ('22002-E0W.STEP',
    '2018-06-01T18:12:35',
    ( 'admin' ),
    ( '' ),
    'SwSTEP 2.0',
    'SolidWorks 2016',
    '' );
FILE_SCHEMA (( 'CONFIG_CONTROL_DESIGN' ));
ENDSEC;

DATA;
#1 = PERSON_AND_ORGANIZATION ( #37, #82 ) ;
#2 = VERTEX_POINT ( 'NONE', #228 ) ;
#3 =( NAMED_UNIT ( * ) PLANE_ANGLE_UNIT ( ) SI_UNIT ( $, .RADIAN. ) );
#4 = VECTOR ( 'NONE', #99, 39.37007874015748900 ) ;
#5 = CARTESIAN_POINT ( 'NONE',  ( 0.0000000000000000000, 0.0000000000000000000, 1.237974884829228200 ) ) ;
#6 = DIRECTION ( 'NONE',  ( -1.000000000000000000, 0.0000000000000000000, -0.0000000000000000000 ) ) ;
#7 = EDGE_CURVE ( 'NONE', #29, #317, #69, .T. ) ;
#8 = VERTEX_POINT ( 'NONE', #124 ) ;
#9 = DIRECTION ( 'NONE',  ( -0.0000000000000000000, -1.836909530733566100E-016, 1.000000000000000000 ) ) ;
#10 = PERSON_AND_ORGANIZATION ( #37, #82 ) ;
#11 = CALENDAR_DATE ( 2018, 1, 6 ) ;
#12 = AXIS2_PLACEMENT_3D ( 'NONE', #122, #111, #230 ) ;
#13 = APPROVAL_DATE_TIME ( #117, #195 ) ;
#14 = CARTESIAN_POINT ( 'NONE',  ( 0.0000000000000000000, 1.829823679517200600E-017, -0.07478897295609104900 ) ) ;
#15 = DIRECTION ( 'NONE',  ( -0.0000000000000000000, -1.836909530733573500E-016, 1.000000000000000000 ) ) ;
#16 = CONICAL_SURFACE ( 'NONE', #300, 0.5000000000000000000, 0.7853981633974420600 ) ;
#17 = ORIENTED_EDGE ( 'NONE', *, *, #7, .F. ) ;
#18 = DIRECTION ( 'NONE',  ( -0.0000000000000000000, -1.836909530733566100E-016, 1.000000000000000000 ) ) ;
#19 = CARTESIAN_POINT ( 'NONE',  ( 0.0000000000000000000, 0.0000000000000000000, 0.02482527853001582900 ) ) ;
#20 = EDGE_CURVE ( 'NONE', #38, #242, #72, .T. ) ;
#21 = DIRECTION ( 'NONE',  ( 0.0000000000000000000, -1.000000000000000000, -1.878145495644180800E-016 ) ) ;
#22 = EDGE_LOOP ( 'NONE', ( #50, #136, #157, #129 ) ) ;
#23 = AXIS2_PLACEMENT_3D ( 'NONE', #175, #9, #260 ) ;
#24 = DIRECTION ( 'NONE',  ( 0.0000000000000000000, 1.000000000000000000, 1.707404996040164500E-016 ) ) ;
#25 = ORIENTED_EDGE ( 'NONE', *, *, #226, .T. ) ;
#26 = ORIENTED_EDGE ( 'NONE', *, *, #268, .F. ) ;
#27 = CARTESIAN_POINT ( 'NONE',  ( 0.0000000000000000000, 4.549925117844947400E-016, -0.08420701082185153000 ) ) ;
#28 = APPROVAL_PERSON_ORGANIZATION ( #199, #219, #165 ) ;
#29 = VERTEX_POINT ( 'NONE', #177 ) ;
#30 = EDGE_CURVE ( 'NONE', #193, #38, #208, .T. ) ;
#31 = EDGE_CURVE ( 'NONE', #317, #242, #133, .T. ) ;
#32 = FACE_OUTER_BOUND ( 'NONE', #34, .T. ) ;
#33 = EDGE_CURVE ( 'NONE', #249, #242, #237, .T. ) ;
#34 = EDGE_LOOP ( 'NONE', ( #302, #232, #155, #89 ) ) ;
#35 = AXIS2_PLACEMENT_3D ( 'NONE', #318, #310, #313 ) ;
#36 = LOCAL_TIME ( 14, 12, 35.00000000000000000, #257 ) ;
#37 = PERSON ( 'UNSPECIFIED', 'UNSPECIFIED', 'UNSPECIFIED', ('UNSPECIFIED'), ('UNSPECIFIED'), ('UNSPECIFIED') ) ;
#38 = VERTEX_POINT ( 'NONE', #307 ) ;
#39 = AXIS2_PLACEMENT_3D ( 'NONE', #60, #121, #78 ) ;
#40 = VECTOR ( 'NONE', #76, 39.37007874015748100 ) ;
#41 = COORDINATED_UNIVERSAL_TIME_OFFSET ( 5, 0, .BEHIND. ) ;
#42 = DIRECTION ( 'NONE',  ( -0.0000000000000000000, -1.836909530733566100E-016, 1.000000000000000000 ) ) ;
#43 = FACE_OUTER_BOUND ( 'NONE', #254, .T. ) ;
#44 = MANIFOLD_SOLID_BREP ( '22002-001-1-solid1', #322 ) ;
#45 = AXIS2_PLACEMENT_3D ( 'NONE', #305, #15, #93 ) ;
#46 = DIRECTION ( 'NONE',  ( 0.0000000000000000000, -1.000000000000000000, -1.707404996040164500E-016 ) ) ;
#47 = PERSON_AND_ORGANIZATION ( #37, #82 ) ;
#48 = ORIENTED_EDGE ( 'NONE', *, *, #299, .T. ) ;
#49 = ORIENTED_EDGE ( 'NONE', *, *, #295, .F. ) ;
#50 = ORIENTED_EDGE ( 'NONE', *, *, #33, .F. ) ;
#51 = EDGE_LOOP ( 'NONE', ( #172, #48, #128 ) ) ;
#52 = CARTESIAN_POINT ( 'NONE',  ( 0.0000000000000000000, -0.4922940850655471700, -0.08420701082185159900 ) ) ;
#53 = AXIS2_PLACEMENT_3D ( 'NONE', #88, #71, #86 ) ;
#54 = CALENDAR_DATE ( 2018, 1, 6 ) ;
#55 = ORIENTED_EDGE ( 'NONE', *, *, #187, .F. ) ;
#56 = APPLICATION_CONTEXT ( 'configuration controlled 3d designs of mechanical parts and assemblies' ) ;
#57 = CALENDAR_DATE ( 2018, 1, 6 ) ;
#58 =( NAMED_UNIT ( * ) SI_UNIT ( $, .STERADIAN. ) SOLID_ANGLE_UNIT ( ) );
#59 = ORIENTED_EDGE ( 'NONE', *, *, #31, .T. ) ;
#60 = CARTESIAN_POINT ( 'NONE',  ( 0.0000000000000000000, 0.0000000000000000000, 2.392738664356787400 ) ) ;
#61 = AXIS2_PLACEMENT_3D ( 'NONE', #170, #159, #241 ) ;
#62 = COORDINATED_UNIVERSAL_TIME_OFFSET ( 5, 0, .BEHIND. ) ;
#63 =( LENGTH_UNIT ( ) NAMED_UNIT ( * ) SI_UNIT ( $, .METRE. ) );
#64 = LOCAL_TIME ( 14, 12, 35.00000000000000000, #62 ) ;
#65 = EDGE_CURVE ( 'NONE', #106, #38, #202, .T. ) ;
#66 = CARTESIAN_POINT ( 'NONE',  ( 0.0000000000000000000, 1.829823679517199700E-017, -0.07478897295609103500 ) ) ;
#67 = CARTESIAN_POINT ( 'NONE',  ( 0.0000000000000000000, -1.832504960549445600E-017, 0.1245854969778802100 ) ) ;
#68 = AXIS2_PLACEMENT_3D ( 'NONE', #116, #80, #107 ) ;
#69 = CIRCLE ( 'NONE', #284, 1.213149606299212600 ) ;
#70 = APPROVAL_STATUS ( 'not_yet_approved' ) ;
#71 = DIRECTION ( 'NONE',  ( -1.000000000000000000, 1.224646799147353200E-016, 2.249565377136128300E-032 ) ) ;
#72 = CIRCLE ( 'NONE', #200, 0.5000000000000000000 ) ;
#73 = EDGE_LOOP ( 'NONE', ( #55, #174, #244, #286 ) ) ;
#74 = AXIS2_PLACEMENT_3D ( 'NONE', #141, #146, #217 ) ;
#75 = CARTESIAN_POINT ( 'NONE',  ( 0.0000000000000000000, 0.0000000000000000000, 0.0000000000000000000 ) ) ;
#76 = DIRECTION ( 'NONE',  ( -0.0000000000000000000, -1.836909530733566100E-016, 1.000000000000000000 ) ) ;
#77 = CALENDAR_DATE ( 2018, 1, 6 ) ;
#78 = DIRECTION ( 'NONE',  ( 0.0000000000000000000, -1.000000000000000000, -2.163502659258626300E-016 ) ) ;
#79 = VERTEX_POINT ( 'NONE', #52 ) ;
#80 = DIRECTION ( 'NONE',  ( -0.0000000000000000000, -1.836909530733566100E-016, 1.000000000000000000 ) ) ;
#81 = AXIS2_PLACEMENT_3D ( 'NONE', #180, #167, #203 ) ;
#82 = ORGANIZATION ( 'UNSPECIFIED', 'UNSPECIFIED', '' ) ;
#83 = EDGE_LOOP ( 'NONE', ( #311, #26, #59, #245 ) ) ;
#84 = AXIS2_PLACEMENT_3D ( 'NONE', #229, #253, #87 ) ;
#85 = APPROVAL_ROLE ( '' ) ;
#86 = DIRECTION ( 'NONE',  ( -1.224646799147353200E-016, -1.000000000000000000, 0.0000000000000000000 ) ) ;
#87 = DIRECTION ( 'NONE',  ( 0.0000000000000000000, -1.000000000000000000, -1.878145495644180800E-016 ) ) ;
#88 = CARTESIAN_POINT ( 'NONE',  ( 0.0000000000000000000, 0.0000000000000000000, 1.237974884829228200 ) ) ;
#89 = ORIENTED_EDGE ( 'NONE', *, *, #280, .F. ) ;
#90 = CARTESIAN_POINT ( 'NONE',  ( 0.0000000000000000000, -0.5000000000000000000, 0.02482527853001573500 ) ) ;
#91 = APPLICATION_CONTEXT ( 'configuration controlled 3d designs of mechanical parts and assemblies' ) ;
#92 = CYLINDRICAL_SURFACE ( 'NONE', #84, 0.5000000000000000000 ) ;
#93 = DIRECTION ( 'NONE',  ( 0.0000000000000000000, -1.000000000000000000, -1.878145495644180800E-016 ) ) ;
#94 = ORIENTED_EDGE ( 'NONE', *, *, #65, .F. ) ;
#95 = DIRECTION ( 'NONE',  ( 0.0000000000000000000, 0.0000000000000000000, 1.000000000000000000 ) ) ;
#96 = AXIS2_PLACEMENT_3D ( 'NONE', #19, #18, #189 ) ;
#97 = DIRECTION ( 'NONE',  ( 0.0000000000000000000, 0.0000000000000000000, 1.000000000000000000 ) ) ;
#98 = PRODUCT ( '22002-E0W', '22002-E0W', '', ( #288 ) ) ;
#99 = DIRECTION ( 'NONE',  ( 0.0000000000000000000, 0.7071067811865431300, -0.7071067811865516800 ) ) ;
#100 = ADVANCED_FACE ( 'NONE', ( #43 ), #147, .T. ) ;
#101 = LINE ( 'NONE', #271, #215 ) ;
#102 = VECTOR ( 'NONE', #152, 39.37007874015748100 ) ;
#103 = EDGE_LOOP ( 'NONE', ( #148, #294, #287 ) ) ;
#104 = CARTESIAN_POINT ( 'NONE',  ( 6.123233995736766000E-017, 0.5000000000000000000, 0.1245854969778802900 ) ) ;
#105 = CIRCLE ( 'NONE', #114, 0.5000000000000000000 ) ;
#106 = VERTEX_POINT ( 'NONE', #140 ) ;
#107 = DIRECTION ( 'NONE',  ( 0.0000000000000000000, -1.000000000000000000, -1.707404996040164500E-016 ) ) ;
#108 = SPHERICAL_SURFACE ( 'NONE', #81, 2.525393700787401200 ) ;
#109 = PRODUCT_DEFINITION_SHAPE ( 'NONE', 'NONE',  #223 ) ;
#110 = DIRECTION ( 'NONE',  ( -0.0000000000000000000, -1.836909530733573500E-016, 1.000000000000000000 ) ) ;
#111 = DIRECTION ( 'NONE',  ( 0.0000000000000000000, 1.836909530733573500E-016, -1.000000000000000000 ) ) ;
#112 = ORIENTED_EDGE ( 'NONE', *, *, #290, .T. ) ;
#113 = UNCERTAINTY_MEASURE_WITH_UNIT (LENGTH_MEASURE( 1.000000000000000100E-005 ), #130, 'distance_accuracy_value', 'NONE');
#114 = AXIS2_PLACEMENT_3D ( 'NONE', #160, #186, #134 ) ;
#115 = CARTESIAN_POINT ( 'NONE',  ( 6.123233995736766000E-017, 0.5000000000000000000, 0.02482527853001592300 ) ) ;
#116 = CARTESIAN_POINT ( 'NONE',  ( 0.0000000000000000000, -1.832504960549445600E-017, 0.1245854969778802100 ) ) ;
#117 = DATE_AND_TIME ( #11, #197 ) ;
#118 = APPLICATION_PROTOCOL_DEFINITION ( 'international standard', 'config_control_design', 1994, #91 ) ;
#119 = DATE_TIME_ROLE ( 'classification_date' ) ;
#120 = CIRCLE ( 'NONE', #169, 0.4922940850655483400 ) ;
#121 = DIRECTION ( 'NONE',  ( 1.000000000000000000, 0.0000000000000000000, 0.0000000000000000000 ) ) ;
#122 = CARTESIAN_POINT ( 'NONE',  ( 0.0000000000000000000, 4.549925117844947400E-016, -0.08420701082185153000 ) ) ;
#123 = AXIS2_PLACEMENT_3D ( 'NONE', #66, #178, #181 ) ;
#124 = CARTESIAN_POINT ( 'NONE',  ( 6.028863755146978500E-017, 0.4922940850655481100, -0.08420701082185151600 ) ) ;
#125 = ADVANCED_FACE ( 'NONE', ( #139 ), #92, .T. ) ;
#126 = CIRCLE ( 'NONE', #23, 0.4944322300693972400 ) ;
#127 = SPHERICAL_SURFACE ( 'NONE', #149, 1.213149606299212600 ) ;
#128 = ORIENTED_EDGE ( 'NONE', *, *, #132, .T. ) ;
#129 = ORIENTED_EDGE ( 'NONE', *, *, #213, .F. ) ;
#130 =( CONVERSION_BASED_UNIT ( 'INCH', #176 ) LENGTH_UNIT ( ) NAMED_UNIT ( #150 ) );
#131 = DIRECTION ( 'NONE',  ( 1.224646799147353500E-016, 1.000000000000000000, 0.0000000000000000000 ) ) ;
#132 = EDGE_CURVE ( 'NONE', #79, #8, #120, .T. ) ;
#133 = LINE ( 'NONE', #163, #4 ) ;
#134 = DIRECTION ( 'NONE',  ( 0.0000000000000000000, -1.000000000000000000, -1.878145495644180800E-016 ) ) ;
#135 = VECTOR ( 'NONE', #182, 39.37007874015748100 ) ;
#136 = ORIENTED_EDGE ( 'NONE', *, *, #295, .T. ) ;
#137 = DIRECTION ( 'NONE',  ( 1.000000000000000000, -1.224646799147353200E-016, -2.249565377136128300E-032 ) ) ;
#138 = APPROVAL_DATE_TIME ( #156, #246 ) ;
#139 = FACE_OUTER_BOUND ( 'NONE', #22, .T. ) ;
#140 = CARTESIAN_POINT ( 'NONE',  ( 0.0000000000000000000, -0.5000000000000000000, -0.07478897295609114600 ) ) ;
#141 = CARTESIAN_POINT ( 'NONE',  ( 0.0000000000000000000, -1.934779857054006500E-017, 0.1301532669084830300 ) ) ;
#142 = CARTESIAN_POINT ( 'NONE',  ( 0.0000000000000000000, -1.832504960549445600E-017, 0.1245854969778802100 ) ) ;
#143 = FACE_OUTER_BOUND ( 'NONE', #269, .T. ) ;
#144 = DATE_TIME_ROLE ( 'creation_date' ) ;
#145 = CC_DESIGN_PERSON_AND_ORGANIZATION_ASSIGNMENT ( #207, #211, ( #258 ) ) ;
#146 = DIRECTION ( 'NONE',  ( -0.0000000000000000000, -1.836909530733566100E-016, 1.000000000000000000 ) ) ;
#147 = CYLINDRICAL_SURFACE ( 'NONE', #96, 0.5000000000000000000 ) ;
#148 = ORIENTED_EDGE ( 'NONE', *, *, #226, .F. ) ;
#149 = AXIS2_PLACEMENT_3D ( 'NONE', #303, #329, #291 ) ;
#150 = DIMENSIONAL_EXPONENTS ( 1.000000000000000000, 0.0000000000000000000, 0.0000000000000000000, 0.0000000000000000000, 0.0000000000000000000, 0.0000000000000000000, 0.0000000000000000000 ) ;
#151 = ORIENTED_EDGE ( 'NONE', *, *, #299, .F. ) ;
#152 = DIRECTION ( 'NONE',  ( -0.0000000000000000000, -1.836909530733566100E-016, 1.000000000000000000 ) ) ;
#153 = PERSON_AND_ORGANIZATION_ROLE ( 'design_owner' ) ;
#154 = CALENDAR_DATE ( 2018, 1, 6 ) ;
#155 = ORIENTED_EDGE ( 'NONE', *, *, #277, .F. ) ;
#156 = DATE_AND_TIME ( #54, #248 ) ;
#157 = ORIENTED_EDGE ( 'NONE', *, *, #65, .T. ) ;
#158 = ADVANCED_FACE ( 'NONE', ( #225 ), #108, .T. ) ;
#159 = DIRECTION ( 'NONE',  ( -1.000000000000000000, 0.0000000000000000000, 0.0000000000000000000 ) ) ;
#160 = CARTESIAN_POINT ( 'NONE',  ( 0.0000000000000000000, 1.829823679517200600E-017, -0.07478897295609104900 ) ) ;
#161 = CIRCLE ( 'NONE', #306, 2.525393700787401200 ) ;
#162 = CIRCLE ( 'NONE', #321, 0.5000000000000000000 ) ;
#163 = CARTESIAN_POINT ( 'NONE',  ( 0.0000000000000000000, 0.5000000000000000000, 0.1245854969778802900 ) ) ;
#164 = DATE_AND_TIME ( #154, #64 ) ;
#165 = APPROVAL_ROLE ( '' ) ;
#166 = PERSON_AND_ORGANIZATION ( #37, #82 ) ;
#167 = DIRECTION ( 'NONE',  ( 1.000000000000000000, 0.0000000000000000000, 0.0000000000000000000 ) ) ;
#168 = DIRECTION ( 'NONE',  ( 0.0000000000000000000, 1.836909530733566100E-016, -1.000000000000000000 ) ) ;
#169 = AXIS2_PLACEMENT_3D ( 'NONE', #27, #323, #252 ) ;
#170 = CARTESIAN_POINT ( 'NONE',  ( 0.0000000000000000000, 0.0000000000000000000, 1.237974884829228200 ) ) ;
#171 = DATE_AND_TIME ( #57, #205 ) ;
#172 = ORIENTED_EDGE ( 'NONE', *, *, #290, .F. ) ;
#173 = CARTESIAN_POINT ( 'NONE',  ( 6.123233995736766000E-017, -0.5000000000000000000, 0.1245854969778801100 ) ) ;
#174 = ORIENTED_EDGE ( 'NONE', *, *, #30, .T. ) ;
#175 = CARTESIAN_POINT ( 'NONE',  ( 0.0000000000000000000, -1.934779857054006500E-017, 0.1301532669084830300 ) ) ;
#176 = LENGTH_MEASURE_WITH_UNIT ( LENGTH_MEASURE( 0.02539999999999999900 ), #63 );
#177 = CARTESIAN_POINT ( 'NONE',  ( 0.0000000000000000000, 2.971285965137297700E-016, 0.02482527853001570800 ) ) ;
#178 = DIRECTION ( 'NONE',  ( -0.0000000000000000000, -1.836909530733573500E-016, 1.000000000000000000 ) ) ;
#179 = ADVANCED_FACE ( 'NONE', ( #32 ), #282, .T. ) ;
#180 = CARTESIAN_POINT ( 'NONE',  ( 0.0000000000000000000, 0.0000000000000000000, 2.392738664356787400 ) ) ;
#181 = DIRECTION ( 'NONE',  ( 0.0000000000000000000, -1.000000000000000000, -1.878145495644180800E-016 ) ) ;
#182 = DIRECTION ( 'NONE',  ( 8.659560562354878600E-017, -0.7071067811865430200, -0.7071067811865520100 ) ) ;
#183 = PRODUCT_RELATED_PRODUCT_CATEGORY ( 'detail', '', ( #98 ) ) ;
#184 = ORIENTED_EDGE ( 'NONE', *, *, #283, .T. ) ;
#185 = PERSON_AND_ORGANIZATION_ROLE ( 'creator' ) ;
#186 = DIRECTION ( 'NONE',  ( -0.0000000000000000000, -1.836909530733573500E-016, 1.000000000000000000 ) ) ;
#187 = EDGE_CURVE ( 'NONE', #193, #317, #265, .T. ) ;
#188 = CC_DESIGN_SECURITY_CLASSIFICATION ( #210, ( #258 ) ) ;
#189 = DIRECTION ( 'NONE',  ( 0.0000000000000000000, -1.000000000000000000, -1.878145495644180800E-016 ) ) ;
#190 = CC_DESIGN_APPROVAL ( #195, ( #210 ) ) ;
#191 = CIRCLE ( 'NONE', #12, 0.4922940850655483400 ) ;
#192 = CIRCLE ( 'NONE', #53, 1.213149606299212600 ) ;
#193 = VERTEX_POINT ( 'NONE', #194 ) ;
#194 = CARTESIAN_POINT ( 'NONE',  ( -6.055048479497748300E-017, -0.4944322300693967900, 0.1301532669084828900 ) ) ;
#195 = APPROVAL ( #222, 'UNSPECIFIED' ) ;
#196 = COORDINATED_UNIVERSAL_TIME_OFFSET ( 5, 0, .BEHIND. ) ;
#197 = LOCAL_TIME ( 14, 12, 35.00000000000000000, #41 ) ;
#198 = CC_DESIGN_DATE_AND_TIME_ASSIGNMENT ( #171, #119, ( #210 ) ) ;
#199 = PERSON_AND_ORGANIZATION ( #37, #82 ) ;
#200 = AXIS2_PLACEMENT_3D ( 'NONE', #67, #42, #46 ) ;
#201 = ORIENTED_EDGE ( 'NONE', *, *, #187, .T. ) ;
#202 = LINE ( 'NONE', #90, #102 ) ;
#203 = DIRECTION ( 'NONE',  ( 0.0000000000000000000, -1.000000000000000000, -2.163502659258626300E-016 ) ) ;
#204 = PERSON_AND_ORGANIZATION ( #37, #82 ) ;
#205 = LOCAL_TIME ( 14, 12, 35.00000000000000000, #196 ) ;
#206 = CARTESIAN_POINT ( 'NONE',  ( 0.0000000000000000000, 0.4944322300693969600, 0.1301532669084831100 ) ) ;
#207 = PERSON_AND_ORGANIZATION ( #37, #82 ) ;
#208 = LINE ( 'NONE', #173, #135 ) ;
#209 = CC_DESIGN_PERSON_AND_ORGANIZATION_ASSIGNMENT ( #1, #266, ( #210 ) ) ;
#210 = SECURITY_CLASSIFICATION ( '', '', #312 ) ;
#211 = PERSON_AND_ORGANIZATION_ROLE ( 'design_supplier' ) ;
#212 = ADVANCED_FACE ( 'NONE', ( #224 ), #255, .F. ) ;
#213 = EDGE_CURVE ( 'NONE', #242, #38, #285, .T. ) ;
#214 = APPROVAL_PERSON_ORGANIZATION ( #263, #246, #218 ) ;
#215 = VECTOR ( 'NONE', #275, 39.37007874015748900 ) ;
#216 = CONICAL_SURFACE ( 'NONE', #35, 0.5000000000000000000, 0.7853981633974420600 ) ;
#217 = DIRECTION ( 'NONE',  ( 0.0000000000000000000, -1.000000000000000000, -1.726631975225924800E-016 ) ) ;
#218 = APPROVAL_ROLE ( '' ) ;
#219 = APPROVAL ( #292, 'UNSPECIFIED' ) ;
#220 = PERSON_AND_ORGANIZATION_ROLE ( 'creator' ) ;
#221 = EDGE_LOOP ( 'NONE', ( #151, #112, #184 ) ) ;
#222 = APPROVAL_STATUS ( 'not_yet_approved' ) ;
#223 = PRODUCT_DEFINITION ( 'UNKNOWN', '', #258, #239 ) ;
#224 = FACE_OUTER_BOUND ( 'NONE', #103, .T. ) ;
#225 = FACE_OUTER_BOUND ( 'NONE', #51, .T. ) ;
#226 = EDGE_CURVE ( 'NONE', #29, #193, #192, .T. ) ;
#227 = CC_DESIGN_APPROVAL ( #246, ( #258 ) ) ;
#228 = CARTESIAN_POINT ( 'NONE',  ( 0.0000000000000000000, 3.092562101702799800E-016, -0.1326550364306142100 ) ) ;
#229 = CARTESIAN_POINT ( 'NONE',  ( 0.0000000000000000000, 0.0000000000000000000, 0.02482527853001582900 ) ) ;
#230 = DIRECTION ( 'NONE',  ( 0.0000000000000000000, -1.000000000000000000, -1.734131129985876000E-016 ) ) ;
#231 = CONICAL_SURFACE ( 'NONE', #45, 0.5000000000000000000, 0.6857452580073562000 ) ;
#232 = ORIENTED_EDGE ( 'NONE', *, *, #251, .T. ) ;
#233 = ADVANCED_FACE ( 'NONE', ( #309 ), #296, .T. ) ;
#234 = FACE_OUTER_BOUND ( 'NONE', #293, .T. ) ;
#235 = ADVANCED_BREP_SHAPE_REPRESENTATION ( '22002-E0W', ( #44, #281 ), #297 ) ;
#236 = LINE ( 'NONE', #320, #325 ) ;
#237 = LINE ( 'NONE', #115, #40 ) ;
#238 = ORIENTED_EDGE ( 'NONE', *, *, #277, .T. ) ;
#239 = DESIGN_CONTEXT ( 'detailed design', #56, 'design' ) ;
#240 = ADVANCED_FACE ( 'NONE', ( #143 ), #231, .T. ) ;
#241 = DIRECTION ( 'NONE',  ( 0.0000000000000000000, 1.000000000000000000, 2.251864056567543900E-016 ) ) ;
#242 = VERTEX_POINT ( 'NONE', #104 ) ;
#243 = APPLICATION_PROTOCOL_DEFINITION ( 'international standard', 'config_control_design', 1994, #56 ) ;
#244 = ORIENTED_EDGE ( 'NONE', *, *, #20, .T. ) ;
#245 = ORIENTED_EDGE ( 'NONE', *, *, #213, .T. ) ;
#246 = APPROVAL ( #70, 'UNSPECIFIED' ) ;
#247 = CARTESIAN_POINT ( 'NONE',  ( 0.0000000000000000000, 0.0000000000000000000, 2.392738664356787400 ) ) ;
#248 = LOCAL_TIME ( 14, 12, 35.00000000000000000, #272 ) ;
#249 = VERTEX_POINT ( 'NONE', #327 ) ;
#250 = CC_DESIGN_PERSON_AND_ORGANIZATION_ASSIGNMENT ( #204, #185, ( #258 ) ) ;
#251 = EDGE_CURVE ( 'NONE', #8, #249, #236, .T. ) ;
#252 = DIRECTION ( 'NONE',  ( 0.0000000000000000000, -1.000000000000000000, -1.734131129985876000E-016 ) ) ;
#253 = DIRECTION ( 'NONE',  ( -0.0000000000000000000, -1.836909530733566100E-016, 1.000000000000000000 ) ) ;
#254 = EDGE_LOOP ( 'NONE', ( #238, #259, #304, #94 ) ) ;
#255 = SPHERICAL_SURFACE ( 'NONE', #61, 1.213149606299212600 ) ;
#256 = SHAPE_DEFINITION_REPRESENTATION ( #109, #235 ) ;
#257 = COORDINATED_UNIVERSAL_TIME_OFFSET ( 5, 0, .BEHIND. ) ;
#258 = PRODUCT_DEFINITION_FORMATION_WITH_SPECIFIED_SOURCE ( 'ANY', '', #98, .NOT_KNOWN. ) ;
#259 = ORIENTED_EDGE ( 'NONE', *, *, #33, .T. ) ;
#260 = DIRECTION ( 'NONE',  ( 0.0000000000000000000, -1.000000000000000000, -1.726631975225924800E-016 ) ) ;
#261 = CC_DESIGN_DATE_AND_TIME_ASSIGNMENT ( #164, #144, ( #223 ) ) ;
#262 = ADVANCED_FACE ( 'NONE', ( #326 ), #216, .T. ) ;
#263 = PERSON_AND_ORGANIZATION ( #37, #82 ) ;
#264 = DATE_AND_TIME ( #77, #36 ) ;
#265 = CIRCLE ( 'NONE', #74, 0.4944322300693972400 ) ;
#266 = PERSON_AND_ORGANIZATION_ROLE ( 'classification_officer' ) ;
#267 = ADVANCED_FACE ( 'NONE', ( #234 ), #127, .F. ) ;
#268 = EDGE_CURVE ( 'NONE', #317, #193, #126, .T. ) ;
#269 = EDGE_LOOP ( 'NONE', ( #278, #273, #328, #49 ) ) ;
#270 = CC_DESIGN_PERSON_AND_ORGANIZATION_ASSIGNMENT ( #10, #220, ( #223 ) ) ;
#271 = CARTESIAN_POINT ( 'NONE',  ( 0.0000000000000000000, -0.5000000000000000000, -0.07478897295609113200 ) ) ;
#272 = COORDINATED_UNIVERSAL_TIME_OFFSET ( 5, 0, .BEHIND. ) ;
#273 = ORIENTED_EDGE ( 'NONE', *, *, #132, .F. ) ;
#274 = CC_DESIGN_APPROVAL ( #219, ( #223 ) ) ;
#275 = DIRECTION ( 'NONE',  ( 0.0000000000000000000, -0.6332499777625642000, 0.7739473274478774200 ) ) ;
#276 = FACE_OUTER_BOUND ( 'NONE', #83, .T. ) ;
#277 = EDGE_CURVE ( 'NONE', #106, #249, #105, .T. ) ;
#278 = ORIENTED_EDGE ( 'NONE', *, *, #251, .F. ) ;
#279 = CC_DESIGN_PERSON_AND_ORGANIZATION_ASSIGNMENT ( #166, #153, ( #98 ) ) ;
#280 = EDGE_CURVE ( 'NONE', #79, #106, #101, .T. ) ;
#281 = AXIS2_PLACEMENT_3D ( 'NONE', #75, #97, #319 ) ;
#282 = CONICAL_SURFACE ( 'NONE', #123, 0.5000000000000000000, 0.6857452580073562000 ) ;
#283 = EDGE_CURVE ( 'NONE', #8, #79, #191, .T. ) ;
#284 = AXIS2_PLACEMENT_3D ( 'NONE', #5, #324, #298 ) ;
#285 = CIRCLE ( 'NONE', #68, 0.5000000000000000000 ) ;
#286 = ORIENTED_EDGE ( 'NONE', *, *, #31, .F. ) ;
#287 = ORIENTED_EDGE ( 'NONE', *, *, #268, .T. ) ;
#288 = MECHANICAL_CONTEXT ( 'NONE', #91, 'mechanical' ) ;
#289 = CARTESIAN_POINT ( 'NONE',  ( 0.0000000000000000000, 0.0000000000000000000, 2.392738664356787400 ) ) ;
#290 = EDGE_CURVE ( 'NONE', #2, #8, #301, .T. ) ;
#291 = DIRECTION ( 'NONE',  ( 0.0000000000000000000, 1.000000000000000000, 2.251864056567543900E-016 ) ) ;
#292 = APPROVAL_STATUS ( 'not_yet_approved' ) ;
#293 = EDGE_LOOP ( 'NONE', ( #17, #25, #201 ) ) ;
#294 = ORIENTED_EDGE ( 'NONE', *, *, #7, .T. ) ;
#295 = EDGE_CURVE ( 'NONE', #249, #106, #162, .T. ) ;
#296 = SPHERICAL_SURFACE ( 'NONE', #39, 2.525393700787401200 ) ;
#297 =( GEOMETRIC_REPRESENTATION_CONTEXT ( 3 ) GLOBAL_UNCERTAINTY_ASSIGNED_CONTEXT ( ( #113 ) ) GLOBAL_UNIT_ASSIGNED_CONTEXT ( ( #130, #3, #58 ) ) REPRESENTATION_CONTEXT ( 'NONE', 'WORKASPACE' ) );
#298 = DIRECTION ( 'NONE',  ( 0.0000000000000000000, 0.0000000000000000000, -1.000000000000000000 ) ) ;
#299 = EDGE_CURVE ( 'NONE', #2, #79, #161, .T. ) ;
#300 = AXIS2_PLACEMENT_3D ( 'NONE', #142, #168, #24 ) ;
#301 = CIRCLE ( 'NONE', #330, 2.525393700787401200 ) ;
#302 = ORIENTED_EDGE ( 'NONE', *, *, #283, .F. ) ;
#303 = CARTESIAN_POINT ( 'NONE',  ( 0.0000000000000000000, 0.0000000000000000000, 1.237974884829228200 ) ) ;
#304 = ORIENTED_EDGE ( 'NONE', *, *, #20, .F. ) ;
#305 = CARTESIAN_POINT ( 'NONE',  ( 0.0000000000000000000, 1.829823679517199700E-017, -0.07478897295609103500 ) ) ;
#306 = AXIS2_PLACEMENT_3D ( 'NONE', #247, #6, #95 ) ;
#307 = CARTESIAN_POINT ( 'NONE',  ( 0.0000000000000000000, -0.5000000000000000000, 0.1245854969778801100 ) ) ;
#308 = APPROVAL_PERSON_ORGANIZATION ( #47, #195, #85 ) ;
#309 = FACE_OUTER_BOUND ( 'NONE', #221, .T. ) ;
#310 = DIRECTION ( 'NONE',  ( 0.0000000000000000000, 1.836909530733566100E-016, -1.000000000000000000 ) ) ;
#311 = ORIENTED_EDGE ( 'NONE', *, *, #30, .F. ) ;
#312 = SECURITY_CLASSIFICATION_LEVEL ( 'unclassified' ) ;
#313 = DIRECTION ( 'NONE',  ( 0.0000000000000000000, 1.000000000000000000, 1.707404996040164500E-016 ) ) ;
#314 = ADVANCED_FACE ( 'NONE', ( #276 ), #16, .T. ) ;
#315 = APPROVAL_DATE_TIME ( #264, #219 ) ;
#316 = DIRECTION ( 'NONE',  ( 7.755075583270566900E-017, 0.6332499777625639800, 0.7739473274478775300 ) ) ;
#317 = VERTEX_POINT ( 'NONE', #206 ) ;
#318 = CARTESIAN_POINT ( 'NONE',  ( 0.0000000000000000000, -1.832504960549445600E-017, 0.1245854969778802100 ) ) ;
#319 = DIRECTION ( 'NONE',  ( 1.000000000000000000, 0.0000000000000000000, 0.0000000000000000000 ) ) ;
#320 = CARTESIAN_POINT ( 'NONE',  ( 6.123233995736766000E-017, 0.5000000000000000000, -0.07478897295609093800 ) ) ;
#321 = AXIS2_PLACEMENT_3D ( 'NONE', #14, #110, #21 ) ;
#322 = CLOSED_SHELL ( 'NONE', ( #179, #262, #100, #233, #267, #212, #158, #125, #314, #240 ) ) ;
#323 = DIRECTION ( 'NONE',  ( 0.0000000000000000000, 1.836909530733573500E-016, -1.000000000000000000 ) ) ;
#324 = DIRECTION ( 'NONE',  ( 1.000000000000000000, 0.0000000000000000000, 0.0000000000000000000 ) ) ;
#325 = VECTOR ( 'NONE', #316, 39.37007874015748100 ) ;
#326 = FACE_OUTER_BOUND ( 'NONE', #73, .T. ) ;
#327 = CARTESIAN_POINT ( 'NONE',  ( 6.123233995736766000E-017, 0.5000000000000000000, -0.07478897295609096600 ) ) ;
#328 = ORIENTED_EDGE ( 'NONE', *, *, #280, .T. ) ;
#329 = DIRECTION ( 'NONE',  ( -1.000000000000000000, 0.0000000000000000000, 0.0000000000000000000 ) ) ;
#330 = AXIS2_PLACEMENT_3D ( 'NONE', #289, #137, #131 ) ;
ENDSEC;
END-ISO-10303-21;
