ISO-10303-21;
HEADER;
FILE_DESCRIPTION (( 'STEP AP203' ),
    '1' );
FILE_NAME ('Web Model 11874_22606.step',
    '2022-06-07T18:29:48',
    ( 'WC' ),
    ( 'Windows Central' ),
    'SwSTEP 2.0',
    'SolidWorks 2021',
    '' );
FILE_SCHEMA (( 'CONFIG_CONTROL_DESIGN' ));
ENDSEC;

DATA;
#1 = CC_DESIGN_PERSON_AND_ORGANIZATION_ASSIGNMENT ( #70, #11, ( #100 ) ) ;
#2 = ORIENTED_EDGE ( 'NONE', *, *, #161, .F. ) ;
#3 = CC_DESIGN_APPROVAL ( #107, ( #72 ) ) ;
#4 = DIRECTION ( 'NONE',  ( -0.000000000000000000, -0.000000000000000000, -1.000000000000000000 ) ) ;
#5 = CARTESIAN_POINT ( 'NONE',  ( 12.69999999999999929, 1.555301434917138433E-15, -0.5000000000000000000 ) ) ;
#6 = EDGE_CURVE ( 'NONE', #91, #133, #121, .T. ) ;
#7 = PERSON_AND_ORGANIZATION ( #145, #40 ) ;
#8 = PERSON_AND_ORGANIZATION_ROLE ( 'design_owner' ) ;
#9 = DATE_AND_TIME ( #84, #164 ) ;
#10 = PERSON_AND_ORGANIZATION ( #145, #40 ) ;
#11 = PERSON_AND_ORGANIZATION_ROLE ( 'classification_officer' ) ;
#12 = ORIENTED_EDGE ( 'NONE', *, *, #157, .F. ) ;
#13 = DIRECTION ( 'NONE',  ( 0.000000000000000000, 0.000000000000000000, 1.000000000000000000 ) ) ;
#14 = APPROVAL ( #29, 'UNSPECIFIED' ) ;
#15 = DIRECTION ( 'NONE',  ( 1.000000000000000000, 0.000000000000000000, -0.000000000000000000 ) ) ;
#16 = AXIS2_PLACEMENT_3D ( 'NONE', #63, #54, #76 ) ;
#17 = DIRECTION ( 'NONE',  ( 0.000000000000000000, 0.000000000000000000, 1.000000000000000000 ) ) ;
#18 = APPROVAL_ROLE ( '' ) ;
#19 = CARTESIAN_POINT ( 'NONE',  ( 0.000000000000000000, 0.000000000000000000, -0.5000000000000000000 ) ) ;
#20 = AXIS2_PLACEMENT_3D ( 'NONE', #169, #123, #152 ) ;
#21 =( NAMED_UNIT ( * ) SI_UNIT ( $, .STERADIAN. ) SOLID_ANGLE_UNIT ( ) );
#22 = CALENDAR_DATE ( 2022, 7, 6 ) ;
#23 = PERSON_AND_ORGANIZATION ( #145, #40 ) ;
#24 = ADVANCED_FACE ( 'NONE', ( #167 ), #135, .T. ) ;
#25 = LOCAL_TIME ( 14, 29, 48.00000000000000000, #35 ) ;
#26 = CLOSED_SHELL ( 'NONE', ( #126, #175, #24, #65 ) ) ;
#27 = ORIENTED_EDGE ( 'NONE', *, *, #6, .T. ) ;
#28 = CARTESIAN_POINT ( 'NONE',  ( 12.69999999999999929, 1.555301434917138433E-15, 0.5000000000000000000 ) ) ;
#29 = APPROVAL_STATUS ( 'not_yet_approved' ) ;
#30 = CC_DESIGN_PERSON_AND_ORGANIZATION_ASSIGNMENT ( #71, #81, ( #72 ) ) ;
#31 = ORIENTED_EDGE ( 'NONE', *, *, #116, .T. ) ;
#32 =( NAMED_UNIT ( * ) PLANE_ANGLE_UNIT ( ) SI_UNIT ( $, .RADIAN. ) );
#33 = CYLINDRICAL_SURFACE ( 'NONE', #16, 12.69999999999999929 ) ;
#34 = APPROVAL_DATE_TIME ( #37, #14 ) ;
#35 = COORDINATED_UNIVERSAL_TIME_OFFSET ( 5, 0, .BEHIND. ) ;
#36 = EDGE_CURVE ( 'NONE', #105, #119, #51, .T. ) ;
#37 = DATE_AND_TIME ( #125, #154 ) ;
#38 = APPROVAL_ROLE ( '' ) ;
#39 = APPROVAL_PERSON_ORGANIZATION ( #148, #14, #18 ) ;
#40 = ORGANIZATION ( 'UNSPECIFIED', 'UNSPECIFIED', '' ) ;
#41 = LINE ( 'NONE', #28, #55 ) ;
#42 = DIRECTION ( 'NONE',  ( 1.000000000000000000, 0.000000000000000000, -0.000000000000000000 ) ) ;
#43 = CYLINDRICAL_SURFACE ( 'NONE', #159, 12.69999999999999929 ) ;
#44 = CARTESIAN_POINT ( 'NONE',  ( 0.000000000000000000, 0.000000000000000000, -0.5000000000000000000 ) ) ;
#45 = DIRECTION ( 'NONE',  ( -0.000000000000000000, -0.000000000000000000, -1.000000000000000000 ) ) ;
#46 = PERSON_AND_ORGANIZATION_ROLE ( 'creator' ) ;
#47 = DATE_TIME_ROLE ( 'creation_date' ) ;
#48 = VECTOR ( 'NONE', #45, 1000.000000000000000 ) ;
#49 = ORIENTED_EDGE ( 'NONE', *, *, #116, .F. ) ;
#50 = FACE_OUTER_BOUND ( 'NONE', #106, .T. ) ;
#51 = CIRCLE ( 'NONE', #115, 12.69999999999999929 ) ;
#52 = DIRECTION ( 'NONE',  ( 0.000000000000000000, 0.000000000000000000, 1.000000000000000000 ) ) ;
#53 = ORIENTED_EDGE ( 'NONE', *, *, #36, .F. ) ;
#54 = DIRECTION ( 'NONE',  ( -0.000000000000000000, -0.000000000000000000, -1.000000000000000000 ) ) ;
#55 = VECTOR ( 'NONE', #4, 1000.000000000000000 ) ;
#56 = DIRECTION ( 'NONE',  ( 0.000000000000000000, 0.000000000000000000, 1.000000000000000000 ) ) ;
#57 = APPROVAL_STATUS ( 'not_yet_approved' ) ;
#58 = ADVANCED_BREP_SHAPE_REPRESENTATION ( 'Web Model 11874_22606', ( #134, #20 ), #90 ) ;
#59 = CALENDAR_DATE ( 2022, 7, 6 ) ;
#60 = APPROVAL ( #57, 'UNSPECIFIED' ) ;
#61 = ORIENTED_EDGE ( 'NONE', *, *, #6, .F. ) ;
#62 = EDGE_LOOP ( 'NONE', ( #108, #130 ) ) ;
#63 = CARTESIAN_POINT ( 'NONE',  ( 0.000000000000000000, 0.000000000000000000, 0.5000000000000000000 ) ) ;
#64 = PRODUCT_DEFINITION_SHAPE ( 'NONE', 'NONE',  #104 ) ;
#65 = ADVANCED_FACE ( 'NONE', ( #50 ), #147, .F. ) ;
#66 = UNCERTAINTY_MEASURE_WITH_UNIT (LENGTH_MEASURE( 1.000000000000000082E-05 ), #150, 'distance_accuracy_value', 'NONE');
#67 = PRODUCT_RELATED_PRODUCT_CATEGORY ( 'detail', '', ( #151 ) ) ;
#68 = PERSON_AND_ORGANIZATION_ROLE ( 'creator' ) ;
#69 = DATE_AND_TIME ( #22, #95 ) ;
#70 = PERSON_AND_ORGANIZATION ( #145, #40 ) ;
#71 = PERSON_AND_ORGANIZATION ( #145, #40 ) ;
#72 = PRODUCT_DEFINITION_FORMATION_WITH_SPECIFIED_SOURCE ( 'ANY', '', #151, .NOT_KNOWN. ) ;
#73 = CC_DESIGN_DATE_AND_TIME_ASSIGNMENT ( #83, #160, ( #100 ) ) ;
#74 = DIRECTION ( 'NONE',  ( 0.000000000000000000, 0.000000000000000000, 1.000000000000000000 ) ) ;
#75 = DIRECTION ( 'NONE',  ( 1.000000000000000000, 0.000000000000000000, 0.000000000000000000 ) ) ;
#76 = DIRECTION ( 'NONE',  ( -1.000000000000000000, 0.000000000000000000, 0.000000000000000000 ) ) ;
#77 = DIRECTION ( 'NONE',  ( 1.000000000000000000, 0.000000000000000000, 0.000000000000000000 ) ) ;
#78 = DIRECTION ( 'NONE',  ( -1.000000000000000000, 0.000000000000000000, 0.000000000000000000 ) ) ;
#79 = CARTESIAN_POINT ( 'NONE',  ( 0.000000000000000000, 0.000000000000000000, 0.5000000000000000000 ) ) ;
#80 = LOCAL_TIME ( 14, 29, 48.00000000000000000, #155 ) ;
#81 = PERSON_AND_ORGANIZATION_ROLE ( 'design_supplier' ) ;
#82 = SHAPE_DEFINITION_REPRESENTATION ( #64, #58 ) ;
#83 = DATE_AND_TIME ( #59, #25 ) ;
#84 = CALENDAR_DATE ( 2022, 7, 6 ) ;
#85 = PERSON_AND_ORGANIZATION ( #145, #40 ) ;
#86 = CC_DESIGN_SECURITY_CLASSIFICATION ( #100, ( #72 ) ) ;
#87 = CC_DESIGN_DATE_AND_TIME_ASSIGNMENT ( #9, #47, ( #104 ) ) ;
#88 = APPLICATION_CONTEXT ( 'configuration controlled 3d designs of mechanical parts and assemblies' ) ;
#89 = DESIGN_CONTEXT ( 'detailed design', #88, 'design' ) ;
#90 =( GEOMETRIC_REPRESENTATION_CONTEXT ( 3 ) GLOBAL_UNCERTAINTY_ASSIGNED_CONTEXT ( ( #66 ) ) GLOBAL_UNIT_ASSIGNED_CONTEXT ( ( #150, #32, #21 ) ) REPRESENTATION_CONTEXT ( 'NONE', 'WORKASPACE' ) );
#91 = VERTEX_POINT ( 'NONE', #165 ) ;
#92 = CC_DESIGN_PERSON_AND_ORGANIZATION_ASSIGNMENT ( #10, #46, ( #72 ) ) ;
#93 = ORIENTED_EDGE ( 'NONE', *, *, #157, .T. ) ;
#94 = APPLICATION_PROTOCOL_DEFINITION ( 'international standard', 'config_control_design', 1994, #88 ) ;
#95 = LOCAL_TIME ( 14, 29, 48.00000000000000000, #114 ) ;
#96 = AXIS2_PLACEMENT_3D ( 'NONE', #19, #166, #77 ) ;
#97 = ORIENTED_EDGE ( 'NONE', *, *, #101, .F. ) ;
#98 = CARTESIAN_POINT ( 'NONE',  ( -12.69999999999999929, 0.000000000000000000, 0.5000000000000000000 ) ) ;
#99 = DIRECTION ( 'NONE',  ( 1.000000000000000000, 0.000000000000000000, 0.000000000000000000 ) ) ;
#100 = SECURITY_CLASSIFICATION ( '', '', #158 ) ;
#101 = EDGE_CURVE ( 'NONE', #105, #133, #41, .T. ) ;
#102 = APPROVAL_STATUS ( 'not_yet_approved' ) ;
#103 = ORIENTED_EDGE ( 'NONE', *, *, #101, .T. ) ;
#104 = PRODUCT_DEFINITION ( 'UNKNOWN', '', #72, #89 ) ;
#105 = VERTEX_POINT ( 'NONE', #153 ) ;
#106 = EDGE_LOOP ( 'NONE', ( #61, #49 ) ) ;
#107 = APPROVAL ( #102, 'UNSPECIFIED' ) ;
#108 = ORIENTED_EDGE ( 'NONE', *, *, #161, .T. ) ;
#109 = AXIS2_PLACEMENT_3D ( 'NONE', #144, #74, #42 ) ;
#110 = LINE ( 'NONE', #136, #48 ) ;
#111 = FACE_OUTER_BOUND ( 'NONE', #163, .T. ) ;
#112 = CARTESIAN_POINT ( 'NONE',  ( 0.000000000000000000, 0.000000000000000000, 0.5000000000000000000 ) ) ;
#113 = CALENDAR_DATE ( 2022, 7, 6 ) ;
#114 = COORDINATED_UNIVERSAL_TIME_OFFSET ( 5, 0, .BEHIND. ) ;
#115 = AXIS2_PLACEMENT_3D ( 'NONE', #132, #13, #117 ) ;
#116 = EDGE_CURVE ( 'NONE', #133, #91, #118, .T. ) ;
#117 = DIRECTION ( 'NONE',  ( 1.000000000000000000, 0.000000000000000000, 0.000000000000000000 ) ) ;
#118 = CIRCLE ( 'NONE', #96, 12.69999999999999929 ) ;
#119 = VERTEX_POINT ( 'NONE', #98 ) ;
#120 = DIRECTION ( 'NONE',  ( -0.000000000000000000, -0.000000000000000000, -1.000000000000000000 ) ) ;
#121 = CIRCLE ( 'NONE', #129, 12.69999999999999929 ) ;
#122 = APPLICATION_PROTOCOL_DEFINITION ( 'international standard', 'config_control_design', 1994, #162 ) ;
#123 = DIRECTION ( 'NONE',  ( 0.000000000000000000, 0.000000000000000000, 1.000000000000000000 ) ) ;
#124 = CC_DESIGN_PERSON_AND_ORGANIZATION_ASSIGNMENT ( #127, #68, ( #104 ) ) ;
#125 = CALENDAR_DATE ( 2022, 7, 6 ) ;
#126 = ADVANCED_FACE ( 'NONE', ( #111 ), #43, .T. ) ;
#127 = PERSON_AND_ORGANIZATION ( #145, #40 ) ;
#128 = APPROVAL_DATE_TIME ( #69, #60 ) ;
#129 = AXIS2_PLACEMENT_3D ( 'NONE', #44, #17, #75 ) ;
#130 = ORIENTED_EDGE ( 'NONE', *, *, #36, .T. ) ;
#131 = EDGE_LOOP ( 'NONE', ( #97, #2, #93, #27 ) ) ;
#132 = CARTESIAN_POINT ( 'NONE',  ( 0.000000000000000000, 0.000000000000000000, 0.5000000000000000000 ) ) ;
#133 = VERTEX_POINT ( 'NONE', #5 ) ;
#134 = MANIFOLD_SOLID_BREP ( 'Boss-Extrude1', #26 ) ;
#135 = PLANE ( 'NONE',  #109 ) ;
#136 = CARTESIAN_POINT ( 'NONE',  ( -12.69999999999999929, 0.000000000000000000, 0.5000000000000000000 ) ) ;
#137 = COORDINATED_UNIVERSAL_TIME_OFFSET ( 5, 0, .BEHIND. ) ;
#138 = CC_DESIGN_PERSON_AND_ORGANIZATION_ASSIGNMENT ( #7, #8, ( #151 ) ) ;
#139 = CC_DESIGN_APPROVAL ( #14, ( #104 ) ) ;
#140 = COORDINATED_UNIVERSAL_TIME_OFFSET ( 5, 0, .BEHIND. ) ;
#141 = APPROVAL_ROLE ( '' ) ;
#142 = DATE_AND_TIME ( #113, #80 ) ;
#143 = CIRCLE ( 'NONE', #174, 12.69999999999999929 ) ;
#144 = CARTESIAN_POINT ( 'NONE',  ( 0.000000000000000000, 0.000000000000000000, 0.5000000000000000000 ) ) ;
#145 = PERSON ( 'UNSPECIFIED', 'UNSPECIFIED', 'UNSPECIFIED', ('UNSPECIFIED'), ('UNSPECIFIED'), ('UNSPECIFIED') ) ;
#146 = CARTESIAN_POINT ( 'NONE',  ( 0.000000000000000000, 0.000000000000000000, -0.5000000000000000000 ) ) ;
#147 = PLANE ( 'NONE',  #168 ) ;
#148 = PERSON_AND_ORGANIZATION ( #145, #40 ) ;
#149 = APPROVAL_PERSON_ORGANIZATION ( #23, #60, #38 ) ;
#150 =( LENGTH_UNIT ( ) NAMED_UNIT ( * ) SI_UNIT ( .MILLI., .METRE. ) );
#151 = PRODUCT ( 'Web Model 11874_22606', 'Web Model 11874_22606', '', ( #156 ) ) ;
#152 = DIRECTION ( 'NONE',  ( 1.000000000000000000, 0.000000000000000000, 0.000000000000000000 ) ) ;
#153 = CARTESIAN_POINT ( 'NONE',  ( 12.69999999999999929, 1.555301434917138433E-15, 0.5000000000000000000 ) ) ;
#154 = LOCAL_TIME ( 14, 29, 48.00000000000000000, #137 ) ;
#155 = COORDINATED_UNIVERSAL_TIME_OFFSET ( 5, 0, .BEHIND. ) ;
#156 = MECHANICAL_CONTEXT ( 'NONE', #162, 'mechanical' ) ;
#157 = EDGE_CURVE ( 'NONE', #119, #91, #110, .T. ) ;
#158 = SECURITY_CLASSIFICATION_LEVEL ( 'unclassified' ) ;
#159 = AXIS2_PLACEMENT_3D ( 'NONE', #79, #120, #78 ) ;
#160 = DATE_TIME_ROLE ( 'classification_date' ) ;
#161 = EDGE_CURVE ( 'NONE', #119, #105, #143, .T. ) ;
#162 = APPLICATION_CONTEXT ( 'configuration controlled 3d designs of mechanical parts and assemblies' ) ;
#163 = EDGE_LOOP ( 'NONE', ( #53, #103, #31, #12 ) ) ;
#164 = LOCAL_TIME ( 14, 29, 48.00000000000000000, #140 ) ;
#165 = CARTESIAN_POINT ( 'NONE',  ( -12.69999999999999929, 0.000000000000000000, -0.5000000000000000000 ) ) ;
#166 = DIRECTION ( 'NONE',  ( 0.000000000000000000, 0.000000000000000000, 1.000000000000000000 ) ) ;
#167 = FACE_OUTER_BOUND ( 'NONE', #62, .T. ) ;
#168 = AXIS2_PLACEMENT_3D ( 'NONE', #146, #52, #15 ) ;
#169 = CARTESIAN_POINT ( 'NONE',  ( 0.000000000000000000, 0.000000000000000000, 0.000000000000000000 ) ) ;
#170 = FACE_OUTER_BOUND ( 'NONE', #131, .T. ) ;
#171 = CC_DESIGN_APPROVAL ( #60, ( #100 ) ) ;
#172 = APPROVAL_PERSON_ORGANIZATION ( #85, #107, #141 ) ;
#173 = APPROVAL_DATE_TIME ( #142, #107 ) ;
#174 = AXIS2_PLACEMENT_3D ( 'NONE', #112, #56, #99 ) ;
#175 = ADVANCED_FACE ( 'NONE', ( #170 ), #33, .T. ) ;
ENDSEC;
END-ISO-10303-21;
