ISO-10303-21;
HEADER;
FILE_DESCRIPTION (( 'STEP AP203' ),
    '1' );
FILE_NAME ('Web Model 64402MX_64404.step',
    '2017-10-30T13:11:54',
    ( '' ),
    ( '' ),
    'SwSTEP 2.0',
    'SolidWorks 2016',
    '' );
FILE_SCHEMA (( 'CONFIG_CONTROL_DESIGN' ));
ENDSEC;

DATA;
#1 = PRODUCT_DEFINITION_SHAPE ( 'NONE', 'NONE',  #201 ) ;
#2 = ORIENTED_EDGE ( 'NONE', *, *, #38, .T. ) ;
#3 = CC_DESIGN_DATE_AND_TIME_ASSIGNMENT ( #22, #229, ( #201 ) ) ;
#4 =( LENGTH_UNIT ( ) NAMED_UNIT ( * ) SI_UNIT ( .MILLI., .METRE. ) );
#5 = APPLICATION_CONTEXT ( 'configuration controlled 3d designs of mechanical parts and assemblies' ) ;
#6 = LINE ( 'NONE', #110, #166 ) ;
#7 = ORIENTED_EDGE ( 'NONE', *, *, #84, .F. ) ;
#8 = CC_DESIGN_PERSON_AND_ORGANIZATION_ASSIGNMENT ( #158, #174, ( #201 ) ) ;
#9 = APPLICATION_CONTEXT ( 'configuration controlled 3d designs of mechanical parts and assemblies' ) ;
#10 = CALENDAR_DATE ( 2017, 30, 10 ) ;
#11 = LINE ( 'NONE', #209, #57 ) ;
#12 = PERSON_AND_ORGANIZATION ( #179, #143 ) ;
#13 = LINE ( 'NONE', #56, #135 ) ;
#14 = ORIENTED_EDGE ( 'NONE', *, *, #24, .F. ) ;
#15 = CARTESIAN_POINT ( 'NONE',  ( -12.50000000000000200, -12.50000000000000000, -4.750000000000000000 ) ) ;
#16 = COORDINATED_UNIVERSAL_TIME_OFFSET ( 5, 0, .BEHIND. ) ;
#17 = ORIENTED_EDGE ( 'NONE', *, *, #93, .F. ) ;
#18 = ADVANCED_BREP_SHAPE_REPRESENTATION ( 'Web Model 64402MX_64404', ( #225, #20 ), #99 ) ;
#19 = DIRECTION ( 'NONE',  ( 1.000000000000000000, 1.387778780781445700E-016, -0.0000000000000000000 ) ) ;
#20 = AXIS2_PLACEMENT_3D ( 'NONE', #67, #86, #29 ) ;
#21 = CARTESIAN_POINT ( 'NONE',  ( 0.0000000000000000000, 0.0000000000000000000, 4.750000000000000000 ) ) ;
#22 = DATE_AND_TIME ( #94, #138 ) ;
#23 = VERTEX_POINT ( 'NONE', #70 ) ;
#24 = EDGE_CURVE ( 'NONE', #164, #237, #11, .T. ) ;
#25 = FACE_OUTER_BOUND ( 'NONE', #159, .T. ) ;
#26 = PERSON_AND_ORGANIZATION ( #179, #143 ) ;
#27 = VERTEX_POINT ( 'NONE', #210 ) ;
#28 = CARTESIAN_POINT ( 'NONE',  ( 12.49999999999999800, -12.49999999999999600, 4.750000000000000000 ) ) ;
#29 = DIRECTION ( 'NONE',  ( 1.000000000000000000, 0.0000000000000000000, 0.0000000000000000000 ) ) ;
#30 = APPLICATION_PROTOCOL_DEFINITION ( 'international standard', 'config_control_design', 1994, #9 ) ;
#31 = DIRECTION ( 'NONE',  ( -1.000000000000000000, -1.387778780781445700E-016, 0.0000000000000000000 ) ) ;
#32 = CARTESIAN_POINT ( 'NONE',  ( 12.49999999999999800, -12.49999999999999600, 4.750000000000000000 ) ) ;
#33 = APPROVAL_DATE_TIME ( #231, #106 ) ;
#34 = DATE_AND_TIME ( #223, #39 ) ;
#35 = ORIENTED_EDGE ( 'NONE', *, *, #195, .T. ) ;
#36 = CARTESIAN_POINT ( 'NONE',  ( 12.49999999999999800, 12.50000000000000400, -4.750000000000000000 ) ) ;
#37 = PLANE ( 'NONE',  #233 ) ;
#38 = EDGE_CURVE ( 'NONE', #237, #23, #109, .T. ) ;
#39 = LOCAL_TIME ( 9, 11, 54.00000000000000000, #87 ) ;
#40 = CLOSED_SHELL ( 'NONE', ( #83, #208, #61, #134, #150, #172 ) ) ;
#41 = LINE ( 'NONE', #181, #176 ) ;
#42 = DIRECTION ( 'NONE',  ( 1.000000000000000000, 0.0000000000000000000, -0.0000000000000000000 ) ) ;
#43 = COORDINATED_UNIVERSAL_TIME_OFFSET ( 5, 0, .BEHIND. ) ;
#44 = ORIENTED_EDGE ( 'NONE', *, *, #121, .F. ) ;
#45 = AXIS2_PLACEMENT_3D ( 'NONE', #21, #147, #196 ) ;
#46 = PLANE ( 'NONE',  #71 ) ;
#47 = APPROVAL ( #193, 'UNSPECIFIED' ) ;
#48 = LINE ( 'NONE', #15, #187 ) ;
#49 = APPROVAL_STATUS ( 'not_yet_approved' ) ;
#50 = AXIS2_PLACEMENT_3D ( 'NONE', #32, #192, #122 ) ;
#51 = VERTEX_POINT ( 'NONE', #124 ) ;
#52 = CARTESIAN_POINT ( 'NONE',  ( 12.49999999999999800, -12.49999999999999600, -4.750000000000000000 ) ) ;
#53 = CARTESIAN_POINT ( 'NONE',  ( 12.49999999999999800, 12.50000000000000400, 4.750000000000000000 ) ) ;
#54 = DIRECTION ( 'NONE',  ( 0.0000000000000000000, 0.0000000000000000000, -1.000000000000000000 ) ) ;
#55 = EDGE_CURVE ( 'NONE', #101, #27, #128, .T. ) ;
#56 = CARTESIAN_POINT ( 'NONE',  ( 12.49999999999999800, 12.50000000000000400, 4.750000000000000000 ) ) ;
#57 = VECTOR ( 'NONE', #228, 1000.000000000000000 ) ;
#58 = CC_DESIGN_PERSON_AND_ORGANIZATION_ASSIGNMENT ( #26, #227, ( #157 ) ) ;
#59 = CC_DESIGN_SECURITY_CLASSIFICATION ( #76, ( #157 ) ) ;
#60 = LINE ( 'NONE', #52, #64 ) ;
#61 = ADVANCED_FACE ( 'NONE', ( #171 ), #107, .F. ) ;
#62 = CARTESIAN_POINT ( 'NONE',  ( 12.49999999999999800, 12.50000000000000400, 4.750000000000000000 ) ) ;
#63 = LOCAL_TIME ( 9, 11, 54.00000000000000000, #199 ) ;
#64 = VECTOR ( 'NONE', #19, 1000.000000000000000 ) ;
#65 = ORIENTED_EDGE ( 'NONE', *, *, #160, .T. ) ;
#66 = CC_DESIGN_APPROVAL ( #47, ( #76 ) ) ;
#67 = CARTESIAN_POINT ( 'NONE',  ( 0.0000000000000000000, 0.0000000000000000000, 0.0000000000000000000 ) ) ;
#68 = APPROVAL_ROLE ( '' ) ;
#69 = ORIENTED_EDGE ( 'NONE', *, *, #162, .T. ) ;
#70 = CARTESIAN_POINT ( 'NONE',  ( -12.50000000000000200, -12.50000000000000000, -4.750000000000000000 ) ) ;
#71 = AXIS2_PLACEMENT_3D ( 'NONE', #28, #118, #189 ) ;
#72 = DATE_AND_TIME ( #10, #168 ) ;
#73 = FACE_OUTER_BOUND ( 'NONE', #148, .T. ) ;
#74 = EDGE_LOOP ( 'NONE', ( #120, #152, #144, #200 ) ) ;
#75 = CARTESIAN_POINT ( 'NONE',  ( -12.50000000000000200, 12.50000000000000000, 4.750000000000000000 ) ) ;
#76 = SECURITY_CLASSIFICATION ( '', '', #123 ) ;
#77 = FACE_OUTER_BOUND ( 'NONE', #221, .T. ) ;
#78 = DIRECTION ( 'NONE',  ( 1.000000000000000000, 1.387778780781445700E-016, 0.0000000000000000000 ) ) ;
#79 = DIRECTION ( 'NONE',  ( -1.000000000000000000, -1.387778780781445700E-016, 0.0000000000000000000 ) ) ;
#80 = DIRECTION ( 'NONE',  ( 1.000000000000000000, 1.387778780781445700E-016, -0.0000000000000000000 ) ) ;
#81 = APPROVAL_PERSON_ORGANIZATION ( #131, #106, #68 ) ;
#82 = PERSON_AND_ORGANIZATION ( #179, #143 ) ;
#83 = ADVANCED_FACE ( 'NONE', ( #146 ), #37, .F. ) ;
#84 = EDGE_CURVE ( 'NONE', #51, #23, #48, .T. ) ;
#85 = CALENDAR_DATE ( 2017, 30, 10 ) ;
#86 = DIRECTION ( 'NONE',  ( 0.0000000000000000000, 0.0000000000000000000, 1.000000000000000000 ) ) ;
#87 = COORDINATED_UNIVERSAL_TIME_OFFSET ( 5, 0, .BEHIND. ) ;
#88 = VECTOR ( 'NONE', #226, 1000.000000000000000 ) ;
#89 = CC_DESIGN_APPROVAL ( #106, ( #201 ) ) ;
#90 = PERSON_AND_ORGANIZATION_ROLE ( 'creator' ) ;
#91 = LINE ( 'NONE', #206, #132 ) ;
#92 = CARTESIAN_POINT ( 'NONE',  ( 12.49999999999999800, -12.49999999999999600, -4.750000000000000000 ) ) ;
#93 = EDGE_CURVE ( 'NONE', #23, #101, #60, .T. ) ;
#94 = CALENDAR_DATE ( 2017, 30, 10 ) ;
#95 = VERTEX_POINT ( 'NONE', #96 ) ;
#96 = CARTESIAN_POINT ( 'NONE',  ( 12.49999999999999800, -12.49999999999999600, 4.750000000000000000 ) ) ;
#97 = PLANE ( 'NONE',  #145 ) ;
#98 = VECTOR ( 'NONE', #129, 1000.000000000000000 ) ;
#99 =( GEOMETRIC_REPRESENTATION_CONTEXT ( 3 ) GLOBAL_UNCERTAINTY_ASSIGNED_CONTEXT ( ( #185 ) ) GLOBAL_UNIT_ASSIGNED_CONTEXT ( ( #4, #205, #136 ) ) REPRESENTATION_CONTEXT ( 'NONE', 'WORKASPACE' ) );
#100 = VECTOR ( 'NONE', #79, 1000.000000000000000 ) ;
#101 = VERTEX_POINT ( 'NONE', #178 ) ;
#102 = CC_DESIGN_APPROVAL ( #182, ( #157 ) ) ;
#103 = ORIENTED_EDGE ( 'NONE', *, *, #84, .T. ) ;
#104 = CARTESIAN_POINT ( 'NONE',  ( -12.50000000000000200, -12.50000000000000000, 4.750000000000000000 ) ) ;
#105 = ORIENTED_EDGE ( 'NONE', *, *, #160, .F. ) ;
#106 = APPROVAL ( #170, 'UNSPECIFIED' ) ;
#107 = PLANE ( 'NONE',  #50 ) ;
#108 = LOCAL_TIME ( 9, 11, 54.00000000000000000, #43 ) ;
#109 = LINE ( 'NONE', #190, #88 ) ;
#110 = CARTESIAN_POINT ( 'NONE',  ( 12.49999999999999800, -12.49999999999999600, 4.750000000000000000 ) ) ;
#111 = PLANE ( 'NONE',  #45 ) ;
#112 = APPROVAL_PERSON_ORGANIZATION ( #218, #182, #230 ) ;
#113 = EDGE_LOOP ( 'NONE', ( #7, #232, #167, #17 ) ) ;
#114 = ORIENTED_EDGE ( 'NONE', *, *, #93, .T. ) ;
#115 = DIRECTION ( 'NONE',  ( -0.0000000000000000000, -0.0000000000000000000, -1.000000000000000000 ) ) ;
#116 = VECTOR ( 'NONE', #203, 1000.000000000000000 ) ;
#117 = ORIENTED_EDGE ( 'NONE', *, *, #121, .T. ) ;
#118 = DIRECTION ( 'NONE',  ( -1.387778780781445700E-016, 1.000000000000000000, 0.0000000000000000000 ) ) ;
#119 = DIRECTION ( 'NONE',  ( 0.0000000000000000000, -0.0000000000000000000, 1.000000000000000000 ) ) ;
#120 = ORIENTED_EDGE ( 'NONE', *, *, #55, .T. ) ;
#121 = EDGE_CURVE ( 'NONE', #164, #51, #125, .T. ) ;
#122 = DIRECTION ( 'NONE',  ( 0.0000000000000000000, 0.0000000000000000000, 1.000000000000000000 ) ) ;
#123 = SECURITY_CLASSIFICATION_LEVEL ( 'unclassified' ) ;
#124 = CARTESIAN_POINT ( 'NONE',  ( -12.50000000000000200, 12.50000000000000000, -4.750000000000000000 ) ) ;
#125 = LINE ( 'NONE', #75, #98 ) ;
#126 = CC_DESIGN_PERSON_AND_ORGANIZATION_ASSIGNMENT ( #140, #207, ( #165 ) ) ;
#127 = APPROVAL_DATE_TIME ( #34, #182 ) ;
#128 = LINE ( 'NONE', #92, #155 ) ;
#129 = DIRECTION ( 'NONE',  ( -0.0000000000000000000, -0.0000000000000000000, -1.000000000000000000 ) ) ;
#130 = CARTESIAN_POINT ( 'NONE',  ( -12.50000000000000200, -12.50000000000000000, 4.750000000000000000 ) ) ;
#131 = PERSON_AND_ORGANIZATION ( #179, #143 ) ;
#132 = VECTOR ( 'NONE', #115, 1000.000000000000000 ) ;
#133 = EDGE_CURVE ( 'NONE', #95, #214, #6, .T. ) ;
#134 = ADVANCED_FACE ( 'NONE', ( #77 ), #97, .F. ) ;
#135 = VECTOR ( 'NONE', #31, 1000.000000000000000 ) ;
#136 =( NAMED_UNIT ( * ) SI_UNIT ( $, .STERADIAN. ) SOLID_ANGLE_UNIT ( ) );
#137 = CARTESIAN_POINT ( 'NONE',  ( 0.0000000000000000000, 0.0000000000000000000, -4.750000000000000000 ) ) ;
#138 = LOCAL_TIME ( 9, 11, 54.00000000000000000, #183 ) ;
#139 = PERSON_AND_ORGANIZATION_ROLE ( 'classification_officer' ) ;
#140 = PERSON_AND_ORGANIZATION ( #179, #143 ) ;
#141 = APPROVAL_ROLE ( '' ) ;
#142 = DIRECTION ( 'NONE',  ( 1.387778780781445700E-016, -1.000000000000000000, 0.0000000000000000000 ) ) ;
#143 = ORGANIZATION ( 'UNSPECIFIED', 'UNSPECIFIED', '' ) ;
#144 = ORIENTED_EDGE ( 'NONE', *, *, #133, .F. ) ;
#145 = AXIS2_PLACEMENT_3D ( 'NONE', #53, #142, #78 ) ;
#146 = FACE_OUTER_BOUND ( 'NONE', #224, .T. ) ;
#147 = DIRECTION ( 'NONE',  ( 0.0000000000000000000, -0.0000000000000000000, 1.000000000000000000 ) ) ;
#148 = EDGE_LOOP ( 'NONE', ( #114, #191, #105, #2 ) ) ;
#149 = EDGE_CURVE ( 'NONE', #27, #51, #211, .T. ) ;
#150 = ADVANCED_FACE ( 'NONE', ( #25 ), #111, .T. ) ;
#151 = PRODUCT_RELATED_PRODUCT_CATEGORY ( 'detail', '', ( #165 ) ) ;
#152 = ORIENTED_EDGE ( 'NONE', *, *, #162, .F. ) ;
#153 = APPLICATION_PROTOCOL_DEFINITION ( 'international standard', 'config_control_design', 1994, #5 ) ;
#154 = DATE_AND_TIME ( #236, #63 ) ;
#155 = VECTOR ( 'NONE', #173, 1000.000000000000000 ) ;
#156 = DATE_TIME_ROLE ( 'classification_date' ) ;
#157 = PRODUCT_DEFINITION_FORMATION_WITH_SPECIFIED_SOURCE ( 'ANY', '', #165, .NOT_KNOWN. ) ;
#158 = PERSON_AND_ORGANIZATION ( #179, #143 ) ;
#159 = EDGE_LOOP ( 'NONE', ( #198, #65, #204, #35 ) ) ;
#160 = EDGE_CURVE ( 'NONE', #237, #95, #41, .T. ) ;
#161 = CARTESIAN_POINT ( 'NONE',  ( -12.50000000000000200, 12.50000000000000000, 4.750000000000000000 ) ) ;
#162 = EDGE_CURVE ( 'NONE', #214, #27, #163, .T. ) ;
#163 = LINE ( 'NONE', #219, #116 ) ;
#164 = VERTEX_POINT ( 'NONE', #161 ) ;
#165 = PRODUCT ( 'Web Model 64402MX_64404', 'Web Model 64402MX_64404', '', ( #188 ) ) ;
#166 = VECTOR ( 'NONE', #234, 1000.000000000000000 ) ;
#167 = ORIENTED_EDGE ( 'NONE', *, *, #55, .F. ) ;
#168 = LOCAL_TIME ( 9, 11, 54.00000000000000000, #16 ) ;
#169 = PERSON_AND_ORGANIZATION ( #179, #143 ) ;
#170 = APPROVAL_STATUS ( 'not_yet_approved' ) ;
#171 = FACE_OUTER_BOUND ( 'NONE', #74, .T. ) ;
#172 = ADVANCED_FACE ( 'NONE', ( #197 ), #202, .F. ) ;
#173 = DIRECTION ( 'NONE',  ( 0.0000000000000000000, 1.000000000000000000, 0.0000000000000000000 ) ) ;
#174 = PERSON_AND_ORGANIZATION_ROLE ( 'creator' ) ;
#175 = DIRECTION ( 'NONE',  ( -0.0000000000000000000, -1.000000000000000000, -0.0000000000000000000 ) ) ;
#176 = VECTOR ( 'NONE', #80, 1000.000000000000000 ) ;
#177 = ORIENTED_EDGE ( 'NONE', *, *, #149, .T. ) ;
#178 = CARTESIAN_POINT ( 'NONE',  ( 12.49999999999999800, -12.49999999999999600, -4.750000000000000000 ) ) ;
#179 = PERSON ( 'UNSPECIFIED', 'UNSPECIFIED', 'UNSPECIFIED', ('UNSPECIFIED'), ('UNSPECIFIED'), ('UNSPECIFIED') ) ;
#180 = CC_DESIGN_DATE_AND_TIME_ASSIGNMENT ( #154, #156, ( #76 ) ) ;
#181 = CARTESIAN_POINT ( 'NONE',  ( 12.49999999999999800, -12.49999999999999600, 4.750000000000000000 ) ) ;
#182 = APPROVAL ( #49, 'UNSPECIFIED' ) ;
#183 = COORDINATED_UNIVERSAL_TIME_OFFSET ( 5, 0, .BEHIND. ) ;
#184 = ORIENTED_EDGE ( 'NONE', *, *, #195, .F. ) ;
#185 = UNCERTAINTY_MEASURE_WITH_UNIT (LENGTH_MEASURE( 1.000000000000000100E-005 ), #4, 'distance_accuracy_value', 'NONE');
#186 = CC_DESIGN_PERSON_AND_ORGANIZATION_ASSIGNMENT ( #169, #139, ( #76 ) ) ;
#187 = VECTOR ( 'NONE', #175, 1000.000000000000000 ) ;
#188 = MECHANICAL_CONTEXT ( 'NONE', #5, 'mechanical' ) ;
#189 = DIRECTION ( 'NONE',  ( -1.000000000000000000, -1.387778780781445700E-016, 0.0000000000000000000 ) ) ;
#190 = CARTESIAN_POINT ( 'NONE',  ( -12.50000000000000200, -12.50000000000000000, 4.750000000000000000 ) ) ;
#191 = ORIENTED_EDGE ( 'NONE', *, *, #235, .F. ) ;
#192 = DIRECTION ( 'NONE',  ( -1.000000000000000000, 0.0000000000000000000, 0.0000000000000000000 ) ) ;
#193 = APPROVAL_STATUS ( 'not_yet_approved' ) ;
#194 = APPROVAL_DATE_TIME ( #72, #47 ) ;
#195 = EDGE_CURVE ( 'NONE', #214, #164, #13, .T. ) ;
#196 = DIRECTION ( 'NONE',  ( 1.000000000000000000, 0.0000000000000000000, -0.0000000000000000000 ) ) ;
#197 = FACE_OUTER_BOUND ( 'NONE', #113, .T. ) ;
#198 = ORIENTED_EDGE ( 'NONE', *, *, #24, .T. ) ;
#199 = COORDINATED_UNIVERSAL_TIME_OFFSET ( 5, 0, .BEHIND. ) ;
#200 = ORIENTED_EDGE ( 'NONE', *, *, #235, .T. ) ;
#201 = PRODUCT_DEFINITION ( 'UNKNOWN', '', #157, #222 ) ;
#202 = PLANE ( 'NONE',  #216 ) ;
#203 = DIRECTION ( 'NONE',  ( -0.0000000000000000000, -0.0000000000000000000, -1.000000000000000000 ) ) ;
#204 = ORIENTED_EDGE ( 'NONE', *, *, #133, .T. ) ;
#205 =( NAMED_UNIT ( * ) PLANE_ANGLE_UNIT ( ) SI_UNIT ( $, .RADIAN. ) );
#206 = CARTESIAN_POINT ( 'NONE',  ( 12.49999999999999800, -12.49999999999999600, 4.750000000000000000 ) ) ;
#207 = PERSON_AND_ORGANIZATION_ROLE ( 'design_owner' ) ;
#208 = ADVANCED_FACE ( 'NONE', ( #73 ), #46, .F. ) ;
#209 = CARTESIAN_POINT ( 'NONE',  ( -12.50000000000000200, -12.50000000000000000, 4.750000000000000000 ) ) ;
#210 = CARTESIAN_POINT ( 'NONE',  ( 12.49999999999999800, 12.50000000000000400, -4.750000000000000000 ) ) ;
#211 = LINE ( 'NONE', #36, #100 ) ;
#212 = ORIENTED_EDGE ( 'NONE', *, *, #38, .F. ) ;
#213 = CC_DESIGN_PERSON_AND_ORGANIZATION_ASSIGNMENT ( #82, #90, ( #157 ) ) ;
#214 = VERTEX_POINT ( 'NONE', #62 ) ;
#215 = DIRECTION ( 'NONE',  ( 1.000000000000000000, 0.0000000000000000000, 0.0000000000000000000 ) ) ;
#216 = AXIS2_PLACEMENT_3D ( 'NONE', #137, #119, #42 ) ;
#217 = APPROVAL_PERSON_ORGANIZATION ( #12, #47, #141 ) ;
#218 = PERSON_AND_ORGANIZATION ( #179, #143 ) ;
#219 = CARTESIAN_POINT ( 'NONE',  ( 12.49999999999999800, 12.50000000000000400, 4.750000000000000000 ) ) ;
#220 = SHAPE_DEFINITION_REPRESENTATION ( #1, #18 ) ;
#221 = EDGE_LOOP ( 'NONE', ( #177, #44, #184, #69 ) ) ;
#222 = DESIGN_CONTEXT ( 'detailed design', #9, 'design' ) ;
#223 = CALENDAR_DATE ( 2017, 30, 10 ) ;
#224 = EDGE_LOOP ( 'NONE', ( #103, #212, #14, #117 ) ) ;
#225 = MANIFOLD_SOLID_BREP ( 'Boss-Extrude1', #40 ) ;
#226 = DIRECTION ( 'NONE',  ( -0.0000000000000000000, -0.0000000000000000000, -1.000000000000000000 ) ) ;
#227 = PERSON_AND_ORGANIZATION_ROLE ( 'design_supplier' ) ;
#228 = DIRECTION ( 'NONE',  ( -0.0000000000000000000, -1.000000000000000000, -0.0000000000000000000 ) ) ;
#229 = DATE_TIME_ROLE ( 'creation_date' ) ;
#230 = APPROVAL_ROLE ( '' ) ;
#231 = DATE_AND_TIME ( #85, #108 ) ;
#232 = ORIENTED_EDGE ( 'NONE', *, *, #149, .F. ) ;
#233 = AXIS2_PLACEMENT_3D ( 'NONE', #130, #215, #54 ) ;
#234 = DIRECTION ( 'NONE',  ( 0.0000000000000000000, 1.000000000000000000, 0.0000000000000000000 ) ) ;
#235 = EDGE_CURVE ( 'NONE', #95, #101, #91, .T. ) ;
#236 = CALENDAR_DATE ( 2017, 30, 10 ) ;
#237 = VERTEX_POINT ( 'NONE', #104 ) ;
ENDSEC;
END-ISO-10303-21;
