ISO-10303-21;
HEADER;
FILE_DESCRIPTION (( 'STEP AP214' ),
    '1' );
FILE_NAME ('3274-E0W.STEP',
    '2009-12-21T16:56:47',
    ( ' ' ),
    ( ' ' ),
    'SwSTEP 2.0',
    'SolidWorks 2009',
    '' );
FILE_SCHEMA (( 'AUTOMOTIVE_DESIGN' ));
ENDSEC;

DATA;
#1 = ADVANCED_FACE ( 'NONE', ( #56 ), #74, .T. ) ;
#2 = EDGE_LOOP ( 'NONE', ( #61, #19, #25, #26, #27 ) ) ;
#3 = EDGE_LOOP ( 'NONE', ( #62, #5, #60, #24 ) ) ;
#4 = ADVANCED_FACE ( 'NONE', ( #112 ), #78, .T. ) ;
#5 = ORIENTED_EDGE ( 'NONE', *, *, #65, .T. ) ;
#6 = VERTEX_POINT ( 'NONE', #76 ) ;
#7 = ORIENTED_EDGE ( 'NONE', *, *, #58, .T. ) ;
#8 = ORIENTED_EDGE ( 'NONE', *, *, #9, .T. ) ;
#9 = EDGE_CURVE ( 'NONE', #18, #10, #124, .T. ) ;
#10 = VERTEX_POINT ( 'NONE', #120 ) ;
#11 = ORIENTED_EDGE ( 'NONE', *, *, #30, .F. ) ;
#12 = VERTEX_POINT ( 'NONE', #119 ) ;
#13 = MANIFOLD_SOLID_BREP ( 'NONE', #23 ) ;
#14 = ADVANCED_FACE ( 'NONE', ( #107 ), #82, .T. ) ;
#15 = ORIENTED_EDGE ( 'NONE', *, *, #16, .T. ) ;
#16 = EDGE_CURVE ( 'NONE', #17, #18, #135, .T. ) ;
#17 = VERTEX_POINT ( 'NONE', #132 ) ;
#18 = VERTEX_POINT ( 'NONE', #181 ) ;
#19 = ORIENTED_EDGE ( 'NONE', *, *, #20, .T. ) ;
#20 = EDGE_CURVE ( 'NONE', #18, #17, #144, .T. ) ;
#21 = ORIENTED_EDGE ( 'NONE', *, *, #16, .F. ) ;
#22 = ORIENTED_EDGE ( 'NONE', *, *, #20, .F. ) ;
#23 = CLOSED_SHELL ( 'NONE', ( #14, #36, #4, #1, #63 ) ) ;
#24 = ORIENTED_EDGE ( 'NONE', *, *, #29, .T. ) ;
#25 = ORIENTED_EDGE ( 'NONE', *, *, #35, .T. ) ;
#26 = ORIENTED_EDGE ( 'NONE', *, *, #65, .F. ) ;
#27 = ORIENTED_EDGE ( 'NONE', *, *, #40, .F. ) ;
#28 = ORIENTED_EDGE ( 'NONE', *, *, #29, .F. ) ;
#29 = EDGE_CURVE ( 'NONE', #12, #59, #250, .T. ) ;
#30 = EDGE_CURVE ( 'NONE', #12, #10, #239, .T. ) ;
#31 = ORIENTED_EDGE ( 'NONE', *, *, #32, .F. ) ;
#32 = EDGE_CURVE ( 'NONE', #33, #12, #234, .T. ) ;
#33 = VERTEX_POINT ( 'NONE', #168 ) ;
#34 = ORIENTED_EDGE ( 'NONE', *, *, #35, .F. ) ;
#35 = EDGE_CURVE ( 'NONE', #17, #33, #180, .T. ) ;
#36 = ADVANCED_FACE ( 'NONE', ( #167 ), #198, .T. ) ;
#37 = EDGE_LOOP ( 'NONE', ( #38, #39, #7, #28 ) ) ;
#38 = ORIENTED_EDGE ( 'NONE', *, *, #30, .T. ) ;
#39 = ORIENTED_EDGE ( 'NONE', *, *, #40, .T. ) ;
#40 = EDGE_CURVE ( 'NONE', #10, #6, #207, .T. ) ;
#41 =( GEOMETRIC_REPRESENTATION_CONTEXT ( 3 ) GLOBAL_UNCERTAINTY_ASSIGNED_CONTEXT ( ( #42 ) ) GLOBAL_UNIT_ASSIGNED_CONTEXT ( ( #45, #44, #43 ) ) REPRESENTATION_CONTEXT ( 'NONE', 'WORKASPACE' ) );
#42 = UNCERTAINTY_MEASURE_WITH_UNIT (LENGTH_MEASURE( 1.000000000000000100E-005 ), #45, 'distance_accuracy_value', 'NONE');
#43 =( NAMED_UNIT ( * ) SI_UNIT ( $, .STERADIAN. ) SOLID_ANGLE_UNIT ( ) );
#44 =( NAMED_UNIT ( * ) PLANE_ANGLE_UNIT ( ) SI_UNIT ( $, .RADIAN. ) );
#45 =( LENGTH_UNIT ( ) NAMED_UNIT ( * ) SI_UNIT ( .MILLI., .METRE. ) );
#46 = MECHANICAL_DESIGN_GEOMETRIC_PRESENTATION_REPRESENTATION (  '', ( #48 ), #41 ) ;
#47 = PRESENTATION_LAYER_ASSIGNMENT (  '', '', ( #48 ) ) ;
#48 = STYLED_ITEM ( 'NONE', ( #49 ), #1 ) ;
#49 = PRESENTATION_STYLE_ASSIGNMENT (( #50 ) ) ;
#50 = SURFACE_STYLE_USAGE ( .BOTH. , #51 ) ;
#51 = SURFACE_SIDE_STYLE ('',( #52 ) ) ;
#52 = SURFACE_STYLE_FILL_AREA ( #53 ) ;
#53 = FILL_AREA_STYLE ('',( #54 ) ) ;
#54 = FILL_AREA_STYLE_COLOUR ( '', #55 ) ;
#55 = COLOUR_RGB ( '',0.9568627450980391500, 0.9490196078431372100, 0.9607843137254902200 ) ;
#56 = FACE_OUTER_BOUND ( 'NONE', #2, .T. ) ;
#57 = EDGE_LOOP ( 'NONE', ( #15, #8, #11, #31, #34 ) ) ;
#58 = EDGE_CURVE ( 'NONE', #6, #59, #140, .T. ) ;
#59 = VERTEX_POINT ( 'NONE', #136 ) ;
#60 = ORIENTED_EDGE ( 'NONE', *, *, #32, .T. ) ;
#61 = ORIENTED_EDGE ( 'NONE', *, *, #9, .F. ) ;
#62 = ORIENTED_EDGE ( 'NONE', *, *, #58, .F. ) ;
#63 = ADVANCED_FACE ( 'NONE', ( #156 ), #223, .F. ) ;
#64 = EDGE_LOOP ( 'NONE', ( #21, #22 ) ) ;
#65 = EDGE_CURVE ( 'NONE', #6, #33, #222, .T. ) ;
#66 = APPLICATION_CONTEXT ( 'automotive_design' ) ;
#67 =( LENGTH_UNIT ( ) NAMED_UNIT ( * ) SI_UNIT ( .MILLI., .METRE. ) );
#68 = MECHANICAL_DESIGN_GEOMETRIC_PRESENTATION_REPRESENTATION (  '', ( #70 ), #108 ) ;
#69 = PRESENTATION_LAYER_ASSIGNMENT (  '', '', ( #70 ) ) ;
#70 = STYLED_ITEM ( 'NONE', ( #71 ), #13 ) ;
#71 = PRESENTATION_STYLE_ASSIGNMENT (( #72 ) ) ;
#72 = SURFACE_STYLE_USAGE ( .BOTH. , #73 ) ;
#73 = SURFACE_SIDE_STYLE ('',( #115 ) ) ;
#74 = CYLINDRICAL_SURFACE ( 'NONE', #114, 25.39999999999999900 ) ;
#75 =( GEOMETRIC_REPRESENTATION_CONTEXT ( 3 ) GLOBAL_UNCERTAINTY_ASSIGNED_CONTEXT ( ( #99 ) ) GLOBAL_UNIT_ASSIGNED_CONTEXT ( ( #80, #111, #100 ) ) REPRESENTATION_CONTEXT ( 'NONE', 'WORKASPACE' ) );
#76 = CARTESIAN_POINT ( 'NONE',  ( -3.110500138708838600E-015, -25.40000000000000200, -0.09064509874863500800 ) ) ;
#77 = CARTESIAN_POINT ( 'NONE',  ( 0.0000000000000000000, 0.0000000000000000000, -99.92000000000001600 ) ) ;
#78 = SPHERICAL_SURFACE ( 'NONE', #130, 103.0100000000000100 ) ;
#79 = DIRECTION ( 'NONE',  ( -0.0000000000000000000, -0.0000000000000000000, 1.000000000000000000 ) ) ;
#80 =( LENGTH_UNIT ( ) NAMED_UNIT ( * ) SI_UNIT ( .MILLI., .METRE. ) );
#81 = STYLED_ITEM ( 'NONE', ( #109 ), #4 ) ;
#82 = CYLINDRICAL_SURFACE ( 'NONE', #134, 25.39999999999999900 ) ;
#83 =( GEOMETRIC_REPRESENTATION_CONTEXT ( 3 ) GLOBAL_UNCERTAINTY_ASSIGNED_CONTEXT ( ( #84 ) ) GLOBAL_UNIT_ASSIGNED_CONTEXT ( ( #87, #86, #85 ) ) REPRESENTATION_CONTEXT ( 'NONE', 'WORKASPACE' ) );
#84 = UNCERTAINTY_MEASURE_WITH_UNIT (LENGTH_MEASURE( 1.000000000000000100E-005 ), #87, 'distance_accuracy_value', 'NONE');
#85 =( NAMED_UNIT ( * ) SI_UNIT ( $, .STERADIAN. ) SOLID_ANGLE_UNIT ( ) );
#86 =( NAMED_UNIT ( * ) PLANE_ANGLE_UNIT ( ) SI_UNIT ( $, .RADIAN. ) );
#87 =( LENGTH_UNIT ( ) NAMED_UNIT ( * ) SI_UNIT ( .MILLI., .METRE. ) );
#88 = MECHANICAL_DESIGN_GEOMETRIC_PRESENTATION_REPRESENTATION (  '', ( #90 ), #83 ) ;
#89 = PRESENTATION_LAYER_ASSIGNMENT (  '', '', ( #90 ) ) ;
#90 = STYLED_ITEM ( 'NONE', ( #91 ), #14 ) ;
#91 = PRESENTATION_STYLE_ASSIGNMENT (( #101 ) ) ;
#92 = UNCERTAINTY_MEASURE_WITH_UNIT (LENGTH_MEASURE( 1.000000000000000100E-005 ), #67, 'distance_accuracy_value', 'NONE');
#93 =( NAMED_UNIT ( * ) SI_UNIT ( $, .STERADIAN. ) SOLID_ANGLE_UNIT ( ) );
#94 =( NAMED_UNIT ( * ) PLANE_ANGLE_UNIT ( ) SI_UNIT ( $, .RADIAN. ) );
#95 = FILL_AREA_STYLE_COLOUR ( '', #125 ) ;
#96 = MECHANICAL_DESIGN_GEOMETRIC_PRESENTATION_REPRESENTATION (  '', ( #81 ), #75 ) ;
#97 = DIRECTION ( 'NONE',  ( 1.000000000000000000, 0.0000000000000000000, 0.0000000000000000000 ) ) ;
#98 = SURFACE_STYLE_FILL_AREA ( #113 ) ;
#99 = UNCERTAINTY_MEASURE_WITH_UNIT (LENGTH_MEASURE( 1.000000000000000100E-005 ), #80, 'distance_accuracy_value', 'NONE');
#100 =( NAMED_UNIT ( * ) SI_UNIT ( $, .STERADIAN. ) SOLID_ANGLE_UNIT ( ) );
#101 = SURFACE_STYLE_USAGE ( .BOTH. , #102 ) ;
#102 = SURFACE_SIDE_STYLE ('',( #103 ) ) ;
#103 = SURFACE_STYLE_FILL_AREA ( #104 ) ;
#104 = FILL_AREA_STYLE ('',( #105 ) ) ;
#105 = FILL_AREA_STYLE_COLOUR ( '', #106 ) ;
#106 = COLOUR_RGB ( '',0.9568627450980391500, 0.9490196078431372100, 0.9607843137254902200 ) ;
#107 = FACE_OUTER_BOUND ( 'NONE', #57, .T. ) ;
#108 =( GEOMETRIC_REPRESENTATION_CONTEXT ( 3 ) GLOBAL_UNCERTAINTY_ASSIGNED_CONTEXT ( ( #92 ) ) GLOBAL_UNIT_ASSIGNED_CONTEXT ( ( #67, #94, #93 ) ) REPRESENTATION_CONTEXT ( 'NONE', 'WORKASPACE' ) );
#109 = PRESENTATION_STYLE_ASSIGNMENT (( #110 ) ) ;
#110 = SURFACE_STYLE_USAGE ( .BOTH. , #131 ) ;
#111 =( NAMED_UNIT ( * ) PLANE_ANGLE_UNIT ( ) SI_UNIT ( $, .RADIAN. ) );
#112 = FACE_OUTER_BOUND ( 'NONE', #3, .T. ) ;
#113 = FILL_AREA_STYLE ('',( #95 ) ) ;
#114 = AXIS2_PLACEMENT_3D ( 'NONE', #127, #79, #97 ) ;
#115 = SURFACE_STYLE_FILL_AREA ( #116 ) ;
#116 = FILL_AREA_STYLE ('',( #117 ) ) ;
#117 = FILL_AREA_STYLE_COLOUR ( '', #118 ) ;
#118 = COLOUR_RGB ( '',0.7960784313725489700, 0.8235294117647058400, 0.9372549019607843100 ) ;
#119 = CARTESIAN_POINT ( 'NONE',  ( 0.0000000000000000000, 25.40000000000000200, -0.09064509874863500800 ) ) ;
#120 = CARTESIAN_POINT ( 'NONE',  ( -25.39999999999999900, 3.110500138708838200E-015, -0.09064509874863543900 ) ) ;
#121 = DIRECTION ( 'NONE',  ( -0.0000000000000000000, -0.0000000000000000000, 1.000000000000000000 ) ) ;
#122 = VECTOR ( 'NONE', #121, 1000.000000000000000 ) ;
#123 = CARTESIAN_POINT ( 'NONE',  ( -25.39999999999999900, 3.110500138708838200E-015, 4.308132045400366600 ) ) ;
#124 = LINE ( 'NONE', #123, #122 ) ;
#125 = COLOUR_RGB ( '',0.9568627450980391500, 0.9490196078431372100, 0.9607843137254902200 ) ;
#126 = PRESENTATION_LAYER_ASSIGNMENT (  '', '', ( #81 ) ) ;
#127 = CARTESIAN_POINT ( 'NONE',  ( 0.0000000000000000000, 0.0000000000000000000, 4.308132045400366600 ) ) ;
#128 = DIRECTION ( 'NONE',  ( 0.0000000000000000000, 1.000000000000000000, 0.0000000000000000000 ) ) ;
#129 = DIRECTION ( 'NONE',  ( -1.000000000000000000, 0.0000000000000000000, 0.0000000000000000000 ) ) ;
#130 = AXIS2_PLACEMENT_3D ( 'NONE', #77, #129, #128 ) ;
#131 = SURFACE_SIDE_STYLE ('',( #98 ) ) ;
#132 = CARTESIAN_POINT ( 'NONE',  ( 25.39999999999999900, 0.0000000000000000000, -3.089999999999999900 ) ) ;
#133 = DIRECTION ( 'NONE',  ( -0.0000000000000000000, -0.0000000000000000000, 1.000000000000000000 ) ) ;
#134 = AXIS2_PLACEMENT_3D ( 'NONE', #160, #133, #235 ) ;
#135 = CIRCLE ( 'NONE', #182, 25.39999999999999900 ) ;
#136 = CARTESIAN_POINT ( 'NONE',  ( 0.0000000000000000000, 6.307335025362154000E-015, 3.089999999999995400 ) ) ;
#137 = DIRECTION ( 'NONE',  ( -1.224606353822377300E-016, -1.000000000000000000, 0.0000000000000000000 ) ) ;
#138 = DIRECTION ( 'NONE',  ( -1.000000000000000000, 1.224606353822377300E-016, 0.0000000000000000000 ) ) ;
#139 = AXIS2_PLACEMENT_3D ( 'NONE', #202, #138, #137 ) ;
#140 = CIRCLE ( 'NONE', #139, 103.0100000000000100 ) ;
#141 = DIRECTION ( 'NONE',  ( 1.000000000000000000, 0.0000000000000000000, 0.0000000000000000000 ) ) ;
#142 = DIRECTION ( 'NONE',  ( -0.0000000000000000000, -0.0000000000000000000, 1.000000000000000000 ) ) ;
#143 = DIRECTION ( 'NONE',  ( 1.000000000000000000, 0.0000000000000000000, 0.0000000000000000000 ) ) ;
#144 = CIRCLE ( 'NONE', #241, 25.39999999999999900 ) ;
#145 =( LENGTH_UNIT ( ) NAMED_UNIT ( * ) SI_UNIT ( .MILLI., .METRE. ) );
#146 = MECHANICAL_DESIGN_GEOMETRIC_PRESENTATION_REPRESENTATION (  '', ( #148 ), #224 ) ;
#147 = PRESENTATION_LAYER_ASSIGNMENT (  '', '', ( #148 ) ) ;
#148 = STYLED_ITEM ( 'NONE', ( #149 ), #63 ) ;
#149 = PRESENTATION_STYLE_ASSIGNMENT (( #150 ) ) ;
#150 = SURFACE_STYLE_USAGE ( .BOTH. , #151 ) ;
#151 = SURFACE_SIDE_STYLE ('',( #152 ) ) ;
#152 = SURFACE_STYLE_FILL_AREA ( #153 ) ;
#153 = FILL_AREA_STYLE ('',( #154 ) ) ;
#154 = FILL_AREA_STYLE_COLOUR ( '', #155 ) ;
#155 = COLOUR_RGB ( '',0.9568627450980391500, 0.9490196078431372100, 0.9607843137254902200 ) ;
#156 = FACE_OUTER_BOUND ( 'NONE', #64, .T. ) ;
#157 = UNCERTAINTY_MEASURE_WITH_UNIT (LENGTH_MEASURE( 1.000000000000000100E-005 ), #193, 'distance_accuracy_value', 'NONE');
#158 =( NAMED_UNIT ( * ) SI_UNIT ( $, .STERADIAN. ) SOLID_ANGLE_UNIT ( ) );
#159 =( NAMED_UNIT ( * ) PLANE_ANGLE_UNIT ( ) SI_UNIT ( $, .RADIAN. ) );
#160 = CARTESIAN_POINT ( 'NONE',  ( 0.0000000000000000000, 0.0000000000000000000, 4.308132045400366600 ) ) ;
#161 = CARTESIAN_POINT ( 'NONE',  ( 0.0000000000000000000, 0.0000000000000000000, -3.089999999999999900 ) ) ;
#162 = UNCERTAINTY_MEASURE_WITH_UNIT (LENGTH_MEASURE( 1.000000000000000100E-005 ), #212, 'distance_accuracy_value', 'NONE');
#163 =( NAMED_UNIT ( * ) SI_UNIT ( $, .STERADIAN. ) SOLID_ANGLE_UNIT ( ) );
#164 =( NAMED_UNIT ( * ) PLANE_ANGLE_UNIT ( ) SI_UNIT ( $, .RADIAN. ) );
#165 = DIRECTION ( 'NONE',  ( -0.0000000000000000000, -0.0000000000000000000, 1.000000000000000000 ) ) ;
#166 = DIRECTION ( 'NONE',  ( -0.0000000000000000000, -0.0000000000000000000, 1.000000000000000000 ) ) ;
#167 = FACE_OUTER_BOUND ( 'NONE', #37, .T. ) ;
#168 = CARTESIAN_POINT ( 'NONE',  ( 25.39999999999999900, 0.0000000000000000000, -0.09064509874863543900 ) ) ;
#169 = DIRECTION ( 'NONE',  ( 1.000000000000000000, 0.0000000000000000000, 0.0000000000000000000 ) ) ;
#170 = DIRECTION ( 'NONE',  ( -0.0000000000000000000, -0.0000000000000000000, 1.000000000000000000 ) ) ;
#171 = SURFACE_STYLE_USAGE ( .BOTH. , #172 ) ;
#172 = SURFACE_SIDE_STYLE ('',( #173 ) ) ;
#173 = SURFACE_STYLE_FILL_AREA ( #174 ) ;
#174 = FILL_AREA_STYLE ('',( #175 ) ) ;
#175 = FILL_AREA_STYLE_COLOUR ( '', #176 ) ;
#176 = COLOUR_RGB ( '',0.9568627450980391500, 0.9490196078431372100, 0.9607843137254902200 ) ;
#177 = DIRECTION ( 'NONE',  ( -0.0000000000000000000, -0.0000000000000000000, 1.000000000000000000 ) ) ;
#178 = VECTOR ( 'NONE', #177, 1000.000000000000000 ) ;
#179 = CARTESIAN_POINT ( 'NONE',  ( 25.39999999999999900, 0.0000000000000000000, 4.308132045400366600 ) ) ;
#180 = LINE ( 'NONE', #179, #178 ) ;
#181 = CARTESIAN_POINT ( 'NONE',  ( -25.39999999999999900, 3.110500138708838200E-015, -3.089999999999999900 ) ) ;
#182 = AXIS2_PLACEMENT_3D ( 'NONE', #161, #166, #143 ) ;
#183 = SURFACE_STYLE_FILL_AREA ( #184 ) ;
#184 = FILL_AREA_STYLE ('',( #185 ) ) ;
#185 = FILL_AREA_STYLE_COLOUR ( '', #186 ) ;
#186 = COLOUR_RGB ( '',0.7960784313725489700, 0.8235294117647058400, 0.9372549019607843100 ) ;
#187 = ADVANCED_BREP_SHAPE_REPRESENTATION ( '3274-E0W', ( #13, #213 ), #188 ) ;
#188 =( GEOMETRIC_REPRESENTATION_CONTEXT ( 3 ) GLOBAL_UNCERTAINTY_ASSIGNED_CONTEXT ( ( #162 ) ) GLOBAL_UNIT_ASSIGNED_CONTEXT ( ( #212, #164, #163 ) ) REPRESENTATION_CONTEXT ( 'NONE', 'WORKASPACE' ) );
#189 = PRODUCT ( '3274-E0W', '3274-E0W', '', ( #190 ) ) ;
#190 = PRODUCT_CONTEXT ( 'NONE', #192, 'mechanical' ) ;
#191 = APPLICATION_PROTOCOL_DEFINITION ( 'draft international standard', 'automotive_design', 1998, #192 ) ;
#192 = APPLICATION_CONTEXT ( 'automotive_design' ) ;
#193 =( LENGTH_UNIT ( ) NAMED_UNIT ( * ) SI_UNIT ( .MILLI., .METRE. ) );
#194 = MECHANICAL_DESIGN_GEOMETRIC_PRESENTATION_REPRESENTATION (  '', ( #196 ), #199 ) ;
#195 = PRESENTATION_LAYER_ASSIGNMENT (  '', '', ( #196 ) ) ;
#196 = STYLED_ITEM ( 'NONE', ( #197 ), #36 ) ;
#197 = PRESENTATION_STYLE_ASSIGNMENT (( #171 ) ) ;
#198 = SPHERICAL_SURFACE ( 'NONE', #206, 103.0100000000000100 ) ;
#199 =( GEOMETRIC_REPRESENTATION_CONTEXT ( 3 ) GLOBAL_UNCERTAINTY_ASSIGNED_CONTEXT ( ( #157 ) ) GLOBAL_UNIT_ASSIGNED_CONTEXT ( ( #193, #159, #158 ) ) REPRESENTATION_CONTEXT ( 'NONE', 'WORKASPACE' ) );
#200 = CARTESIAN_POINT ( 'NONE',  ( 0.0000000000000000000, 0.0000000000000000000, -0.09064509874863543900 ) ) ;
#201 = AXIS2_PLACEMENT_3D ( 'NONE', #200, #142, #141 ) ;
#202 = CARTESIAN_POINT ( 'NONE',  ( 0.0000000000000000000, 0.0000000000000000000, -99.92000000000001600 ) ) ;
#203 = DIRECTION ( 'NONE',  ( 0.0000000000000000000, 1.000000000000000000, 0.0000000000000000000 ) ) ;
#204 = DIRECTION ( 'NONE',  ( -1.000000000000000000, 0.0000000000000000000, 0.0000000000000000000 ) ) ;
#205 = CARTESIAN_POINT ( 'NONE',  ( 0.0000000000000000000, 0.0000000000000000000, -99.92000000000001600 ) ) ;
#206 = AXIS2_PLACEMENT_3D ( 'NONE', #205, #204, #203 ) ;
#207 = CIRCLE ( 'NONE', #201, 25.39999999999999900 ) ;
#208 = CARTESIAN_POINT ( 'NONE',  ( 0.0000000000000000000, 0.0000000000000000000, -3.089999999999999900 ) ) ;
#209 = DIRECTION ( 'NONE',  ( 0.0000000000000000000, 0.0000000000000000000, -1.000000000000000000 ) ) ;
#210 = DIRECTION ( 'NONE',  ( 1.000000000000000000, 0.0000000000000000000, 0.0000000000000000000 ) ) ;
#211 = AXIS2_PLACEMENT_3D ( 'NONE', #249, #210, #209 ) ;
#212 =( LENGTH_UNIT ( ) NAMED_UNIT ( * ) SI_UNIT ( .MILLI., .METRE. ) );
#213 = AXIS2_PLACEMENT_3D ( 'NONE', #254, #253, #252 ) ;
#214 = DIRECTION ( 'NONE',  ( 1.000000000000000000, 0.0000000000000000000, 0.0000000000000000000 ) ) ;
#215 = DIRECTION ( 'NONE',  ( -0.0000000000000000000, -0.0000000000000000000, 1.000000000000000000 ) ) ;
#216 = CARTESIAN_POINT ( 'NONE',  ( 0.0000000000000000000, 0.0000000000000000000, -0.09064509874863543900 ) ) ;
#217 = AXIS2_PLACEMENT_3D ( 'NONE', #216, #215, #214 ) ;
#218 = DIRECTION ( 'NONE',  ( 1.000000000000000000, 0.0000000000000000000, 0.0000000000000000000 ) ) ;
#219 = DIRECTION ( 'NONE',  ( 0.0000000000000000000, -0.0000000000000000000, 1.000000000000000000 ) ) ;
#220 = CARTESIAN_POINT ( 'NONE',  ( 0.0000000000000000000, 1.135247582809596300E-015, -3.089999999999999900 ) ) ;
#221 = AXIS2_PLACEMENT_3D ( 'NONE', #220, #219, #218 ) ;
#222 = CIRCLE ( 'NONE', #217, 25.39999999999999900 ) ;
#223 = PLANE ( 'NONE',  #221 ) ;
#224 =( GEOMETRIC_REPRESENTATION_CONTEXT ( 3 ) GLOBAL_UNCERTAINTY_ASSIGNED_CONTEXT ( ( #245 ) ) GLOBAL_UNIT_ASSIGNED_CONTEXT ( ( #145, #247, #246 ) ) REPRESENTATION_CONTEXT ( 'NONE', 'WORKASPACE' ) );
#225 =( NAMED_UNIT ( * ) PLANE_ANGLE_UNIT ( ) SI_UNIT ( $, .RADIAN. ) );
#226 =( LENGTH_UNIT ( ) NAMED_UNIT ( * ) SI_UNIT ( .MILLI., .METRE. ) );
#227 = MECHANICAL_DESIGN_GEOMETRIC_PRESENTATION_REPRESENTATION (  '', ( #229 ), #242 ) ;
#228 = PRESENTATION_LAYER_ASSIGNMENT (  '', '', ( #229 ) ) ;
#229 = STYLED_ITEM ( 'NONE', ( #230 ), #187 ) ;
#230 = PRESENTATION_STYLE_ASSIGNMENT (( #231 ) ) ;
#231 = SURFACE_STYLE_USAGE ( .BOTH. , #232 ) ;
#232 = SURFACE_SIDE_STYLE ('',( #183 ) ) ;
#233 = AXIS2_PLACEMENT_3D ( 'NONE', #240, #170, #169 ) ;
#234 = CIRCLE ( 'NONE', #233, 25.39999999999999900 ) ;
#235 = DIRECTION ( 'NONE',  ( 1.000000000000000000, 0.0000000000000000000, 0.0000000000000000000 ) ) ;
#236 = DIRECTION ( 'NONE',  ( 1.000000000000000000, 0.0000000000000000000, 0.0000000000000000000 ) ) ;
#237 = DIRECTION ( 'NONE',  ( -0.0000000000000000000, -0.0000000000000000000, 1.000000000000000000 ) ) ;
#238 = AXIS2_PLACEMENT_3D ( 'NONE', #251, #237, #236 ) ;
#239 = CIRCLE ( 'NONE', #238, 25.39999999999999900 ) ;
#240 = CARTESIAN_POINT ( 'NONE',  ( 0.0000000000000000000, 0.0000000000000000000, -0.09064509874863543900 ) ) ;
#241 = AXIS2_PLACEMENT_3D ( 'NONE', #208, #165, #248 ) ;
#242 =( GEOMETRIC_REPRESENTATION_CONTEXT ( 3 ) GLOBAL_UNCERTAINTY_ASSIGNED_CONTEXT ( ( #243 ) ) GLOBAL_UNIT_ASSIGNED_CONTEXT ( ( #226, #225, #244 ) ) REPRESENTATION_CONTEXT ( 'NONE', 'WORKASPACE' ) );
#243 = UNCERTAINTY_MEASURE_WITH_UNIT (LENGTH_MEASURE( 1.000000000000000100E-005 ), #226, 'distance_accuracy_value', 'NONE');
#244 =( NAMED_UNIT ( * ) SI_UNIT ( $, .STERADIAN. ) SOLID_ANGLE_UNIT ( ) );
#245 = UNCERTAINTY_MEASURE_WITH_UNIT (LENGTH_MEASURE( 1.000000000000000100E-005 ), #145, 'distance_accuracy_value', 'NONE');
#246 =( NAMED_UNIT ( * ) SI_UNIT ( $, .STERADIAN. ) SOLID_ANGLE_UNIT ( ) );
#247 =( NAMED_UNIT ( * ) PLANE_ANGLE_UNIT ( ) SI_UNIT ( $, .RADIAN. ) );
#248 = DIRECTION ( 'NONE',  ( 1.000000000000000000, 0.0000000000000000000, 0.0000000000000000000 ) ) ;
#249 = CARTESIAN_POINT ( 'NONE',  ( 0.0000000000000000000, 0.0000000000000000000, -99.92000000000001600 ) ) ;
#250 = CIRCLE ( 'NONE', #211, 103.0099999999999900 ) ;
#251 = CARTESIAN_POINT ( 'NONE',  ( 0.0000000000000000000, 0.0000000000000000000, -0.09064509874863543900 ) ) ;
#252 = DIRECTION ( 'NONE',  ( 1.000000000000000000, 0.0000000000000000000, 0.0000000000000000000 ) ) ;
#253 = DIRECTION ( 'NONE',  ( 0.0000000000000000000, 0.0000000000000000000, 1.000000000000000000 ) ) ;
#254 = CARTESIAN_POINT ( 'NONE',  ( 0.0000000000000000000, 0.0000000000000000000, 0.0000000000000000000 ) ) ;
#255 = PRODUCT_DEFINITION_SHAPE ( 'NONE', 'NONE',  #260 ) ;
#256 = PRODUCT_DEFINITION_FORMATION_WITH_SPECIFIED_SOURCE ( 'ANY', '', #189, .NOT_KNOWN. ) ;
#257 = APPLICATION_PROTOCOL_DEFINITION ( 'draft international standard', 'automotive_design', 1998, #66 ) ;
#258 = PRODUCT_DEFINITION_CONTEXT ( 'detailed design', #66, 'design' ) ;
#259 = PRODUCT_RELATED_PRODUCT_CATEGORY ( 'part', '', ( #189 ) ) ;
#260 = PRODUCT_DEFINITION ( 'UNKNOWN', '', #256, #258 ) ;
#261 = SHAPE_DEFINITION_REPRESENTATION ( #255, #187 ) ;
ENDSEC;
END-ISO-10303-21;
