ISO-10303-21;
HEADER;
FILE_DESCRIPTION (( 'STEP AP203' ),
    '1' );
FILE_NAME ('Web Model 39391_39405.step',
    '2018-10-05T20:40:16',
    ( '' ),
    ( '' ),
    'SwSTEP 2.0',
    'SolidWorks 2016',
    '' );
FILE_SCHEMA (( 'CONFIG_CONTROL_DESIGN' ));
ENDSEC;

DATA;
#1 = ORGANIZATION ( 'UNSPECIFIED', 'UNSPECIFIED', '' ) ;
#2 = COORDINATED_UNIVERSAL_TIME_OFFSET ( 5, 0, .BEHIND. ) ;
#3 = ORIENTED_EDGE ( 'NONE', *, *, #51, .F. ) ;
#4 = CYLINDRICAL_SURFACE ( 'NONE', #59, 6.349999999999999600 ) ;
#5 = AXIS2_PLACEMENT_3D ( 'NONE', #23, #52, #151 ) ;
#6 = COORDINATED_UNIVERSAL_TIME_OFFSET ( 5, 0, .BEHIND. ) ;
#7 = DATE_AND_TIME ( #146, #152 ) ;
#8 = LINE ( 'NONE', #130, #100 ) ;
#9 = DIRECTION ( 'NONE',  ( 0.0000000000000000000, 0.0000000000000000000, 1.000000000000000000 ) ) ;
#10 = LOCAL_TIME ( 16, 40, 16.00000000000000000, #2 ) ;
#11 = APPROVAL_ROLE ( '' ) ;
#12 = PLANE ( 'NONE',  #136 ) ;
#13 = DIRECTION ( 'NONE',  ( -1.000000000000000000, 0.0000000000000000000, 0.0000000000000000000 ) ) ;
#14 =( LENGTH_UNIT ( ) NAMED_UNIT ( * ) SI_UNIT ( .MILLI., .METRE. ) );
#15 = ORIENTED_EDGE ( 'NONE', *, *, #80, .T. ) ;
#16 = DIRECTION ( 'NONE',  ( -0.0000000000000000000, -0.0000000000000000000, -1.000000000000000000 ) ) ;
#17 = APPROVAL_DATE_TIME ( #163, #161 ) ;
#18 = CC_DESIGN_PERSON_AND_ORGANIZATION_ASSIGNMENT ( #143, #67, ( #96 ) ) ;
#19 = PRODUCT ( 'Web Model 39391_39405', 'Web Model 39391_39405', '', ( #119 ) ) ;
#20 = APPROVAL_PERSON_ORGANIZATION ( #28, #161, #11 ) ;
#21 = PRODUCT_DEFINITION_SHAPE ( 'NONE', 'NONE',  #96 ) ;
#22 = CC_DESIGN_PERSON_AND_ORGANIZATION_ASSIGNMENT ( #60, #68, ( #120 ) ) ;
#23 = CARTESIAN_POINT ( 'NONE',  ( 0.0000000000000000000, 0.0000000000000000000, 0.5000000000000000000 ) ) ;
#24 = CARTESIAN_POINT ( 'NONE',  ( -6.349999999999999600, 0.0000000000000000000, 0.5000000000000000000 ) ) ;
#25 = PERSON_AND_ORGANIZATION_ROLE ( 'design_supplier' ) ;
#26 =( NAMED_UNIT ( * ) PLANE_ANGLE_UNIT ( ) SI_UNIT ( $, .RADIAN. ) );
#27 = EDGE_CURVE ( 'NONE', #167, #131, #95, .T. ) ;
#28 = PERSON_AND_ORGANIZATION ( #74, #1 ) ;
#29 = FACE_OUTER_BOUND ( 'NONE', #126, .T. ) ;
#30 = APPLICATION_PROTOCOL_DEFINITION ( 'international standard', 'config_control_design', 1994, #138 ) ;
#31 = CARTESIAN_POINT ( 'NONE',  ( -6.349999999999999600, 0.0000000000000000000, -0.5000000000000000000 ) ) ;
#32 = CALENDAR_DATE ( 2018, 5, 10 ) ;
#33 = ORIENTED_EDGE ( 'NONE', *, *, #88, .F. ) ;
#34 = CC_DESIGN_APPROVAL ( #161, ( #96 ) ) ;
#35 = CIRCLE ( 'NONE', #133, 6.349999999999999600 ) ;
#36 = SHAPE_DEFINITION_REPRESENTATION ( #21, #41 ) ;
#37 = ORIENTED_EDGE ( 'NONE', *, *, #27, .F. ) ;
#38 = DIRECTION ( 'NONE',  ( 1.000000000000000000, 0.0000000000000000000, 0.0000000000000000000 ) ) ;
#39 = CC_DESIGN_SECURITY_CLASSIFICATION ( #120, ( #141 ) ) ;
#40 = APPROVAL_STATUS ( 'not_yet_approved' ) ;
#41 = ADVANCED_BREP_SHAPE_REPRESENTATION ( 'Web Model 39391_39405', ( #73, #145 ), #99 ) ;
#42 = DATE_TIME_ROLE ( 'creation_date' ) ;
#43 = EDGE_CURVE ( 'NONE', #86, #62, #110, .T. ) ;
#44 = DIRECTION ( 'NONE',  ( -0.0000000000000000000, -0.0000000000000000000, -1.000000000000000000 ) ) ;
#45 = APPROVAL_DATE_TIME ( #7, #54 ) ;
#46 = ORIENTED_EDGE ( 'NONE', *, *, #43, .F. ) ;
#47 = APPROVAL ( #162, 'UNSPECIFIED' ) ;
#48 = LOCAL_TIME ( 16, 40, 16.00000000000000000, #97 ) ;
#49 = CC_DESIGN_DATE_AND_TIME_ASSIGNMENT ( #123, #154, ( #120 ) ) ;
#50 = ORIENTED_EDGE ( 'NONE', *, *, #43, .T. ) ;
#51 = EDGE_CURVE ( 'NONE', #62, #86, #35, .T. ) ;
#52 = DIRECTION ( 'NONE',  ( 0.0000000000000000000, 0.0000000000000000000, 1.000000000000000000 ) ) ;
#53 = APPROVAL_PERSON_ORGANIZATION ( #112, #47, #83 ) ;
#54 = APPROVAL ( #40, 'UNSPECIFIED' ) ;
#55 = PERSON_AND_ORGANIZATION_ROLE ( 'design_owner' ) ;
#56 = DIRECTION ( 'NONE',  ( 1.000000000000000000, 0.0000000000000000000, -0.0000000000000000000 ) ) ;
#57 = COORDINATED_UNIVERSAL_TIME_OFFSET ( 5, 0, .BEHIND. ) ;
#58 = EDGE_LOOP ( 'NONE', ( #75, #50 ) ) ;
#59 = AXIS2_PLACEMENT_3D ( 'NONE', #160, #16, #13 ) ;
#60 = PERSON_AND_ORGANIZATION ( #74, #1 ) ;
#61 = CC_DESIGN_APPROVAL ( #47, ( #120 ) ) ;
#62 = VERTEX_POINT ( 'NONE', #24 ) ;
#63 = AXIS2_PLACEMENT_3D ( 'NONE', #72, #175, #56 ) ;
#64 = CC_DESIGN_PERSON_AND_ORGANIZATION_ASSIGNMENT ( #122, #103, ( #141 ) ) ;
#65 = AXIS2_PLACEMENT_3D ( 'NONE', #129, #158, #132 ) ;
#66 = ADVANCED_FACE ( 'NONE', ( #29 ), #170, .F. ) ;
#67 = PERSON_AND_ORGANIZATION_ROLE ( 'creator' ) ;
#68 = PERSON_AND_ORGANIZATION_ROLE ( 'classification_officer' ) ;
#69 = PERSON_AND_ORGANIZATION ( #74, #1 ) ;
#70 = EDGE_LOOP ( 'NONE', ( #135, #3, #144, #98 ) ) ;
#71 = CARTESIAN_POINT ( 'NONE',  ( 6.349999999999999600, 7.776507174585692200E-016, 0.5000000000000000000 ) ) ;
#72 = CARTESIAN_POINT ( 'NONE',  ( 0.0000000000000000000, 0.0000000000000000000, -0.5000000000000000000 ) ) ;
#73 = MANIFOLD_SOLID_BREP ( 'Boss-Extrude1', #157 ) ;
#74 = PERSON ( 'UNSPECIFIED', 'UNSPECIFIED', 'UNSPECIFIED', ('UNSPECIFIED'), ('UNSPECIFIED'), ('UNSPECIFIED') ) ;
#75 = ORIENTED_EDGE ( 'NONE', *, *, #51, .T. ) ;
#76 = UNCERTAINTY_MEASURE_WITH_UNIT (LENGTH_MEASURE( 1.000000000000000100E-005 ), #14, 'distance_accuracy_value', 'NONE');
#77 = FACE_OUTER_BOUND ( 'NONE', #58, .T. ) ;
#78 = CALENDAR_DATE ( 2018, 5, 10 ) ;
#79 = DIRECTION ( 'NONE',  ( -0.0000000000000000000, -0.0000000000000000000, -1.000000000000000000 ) ) ;
#80 = EDGE_CURVE ( 'NONE', #86, #167, #8, .T. ) ;
#81 = CARTESIAN_POINT ( 'NONE',  ( 0.0000000000000000000, 0.0000000000000000000, 0.5000000000000000000 ) ) ;
#82 = ORIENTED_EDGE ( 'NONE', *, *, #113, .F. ) ;
#83 = APPROVAL_ROLE ( '' ) ;
#84 = CIRCLE ( 'NONE', #159, 6.349999999999999600 ) ;
#85 = APPROVAL_DATE_TIME ( #147, #47 ) ;
#86 = VERTEX_POINT ( 'NONE', #71 ) ;
#87 = DIRECTION ( 'NONE',  ( 1.000000000000000000, 0.0000000000000000000, 0.0000000000000000000 ) ) ;
#88 = EDGE_CURVE ( 'NONE', #131, #167, #84, .T. ) ;
#89 = CARTESIAN_POINT ( 'NONE',  ( 0.0000000000000000000, 0.0000000000000000000, 0.5000000000000000000 ) ) ;
#90 = CARTESIAN_POINT ( 'NONE',  ( 0.0000000000000000000, 0.0000000000000000000, 0.0000000000000000000 ) ) ;
#91 = DIRECTION ( 'NONE',  ( 1.000000000000000000, 0.0000000000000000000, 0.0000000000000000000 ) ) ;
#92 = APPROVAL_PERSON_ORGANIZATION ( #125, #54, #153 ) ;
#93 = CC_DESIGN_APPROVAL ( #54, ( #141 ) ) ;
#94 = DATE_AND_TIME ( #32, #48 ) ;
#95 = CIRCLE ( 'NONE', #168, 6.349999999999999600 ) ;
#96 = PRODUCT_DEFINITION ( 'UNKNOWN', '', #141, #111 ) ;
#97 = COORDINATED_UNIVERSAL_TIME_OFFSET ( 5, 0, .BEHIND. ) ;
#98 = ORIENTED_EDGE ( 'NONE', *, *, #88, .T. ) ;
#99 =( GEOMETRIC_REPRESENTATION_CONTEXT ( 3 ) GLOBAL_UNCERTAINTY_ASSIGNED_CONTEXT ( ( #76 ) ) GLOBAL_UNIT_ASSIGNED_CONTEXT ( ( #14, #26, #106 ) ) REPRESENTATION_CONTEXT ( 'NONE', 'WORKASPACE' ) );
#100 = VECTOR ( 'NONE', #79, 1000.000000000000000 ) ;
#101 = CARTESIAN_POINT ( 'NONE',  ( -6.349999999999999600, 0.0000000000000000000, 0.5000000000000000000 ) ) ;
#102 = DIRECTION ( 'NONE',  ( 1.000000000000000000, 0.0000000000000000000, 0.0000000000000000000 ) ) ;
#103 = PERSON_AND_ORGANIZATION_ROLE ( 'creator' ) ;
#104 = ORIENTED_EDGE ( 'NONE', *, *, #27, .T. ) ;
#105 = CARTESIAN_POINT ( 'NONE',  ( 0.0000000000000000000, 0.0000000000000000000, -0.5000000000000000000 ) ) ;
#106 =( NAMED_UNIT ( * ) SI_UNIT ( $, .STERADIAN. ) SOLID_ANGLE_UNIT ( ) );
#107 = DIRECTION ( 'NONE',  ( 0.0000000000000000000, 0.0000000000000000000, 1.000000000000000000 ) ) ;
#108 = FACE_OUTER_BOUND ( 'NONE', #70, .T. ) ;
#109 = PERSON_AND_ORGANIZATION ( #74, #1 ) ;
#110 = CIRCLE ( 'NONE', #5, 6.349999999999999600 ) ;
#111 = DESIGN_CONTEXT ( 'detailed design', #121, 'design' ) ;
#112 = PERSON_AND_ORGANIZATION ( #74, #1 ) ;
#113 = EDGE_CURVE ( 'NONE', #62, #131, #137, .T. ) ;
#114 = FACE_OUTER_BOUND ( 'NONE', #148, .T. ) ;
#115 = ADVANCED_FACE ( 'NONE', ( #77 ), #12, .T. ) ;
#116 = LOCAL_TIME ( 16, 40, 16.00000000000000000, #6 ) ;
#117 = DIRECTION ( 'NONE',  ( 1.000000000000000000, 0.0000000000000000000, -0.0000000000000000000 ) ) ;
#118 = APPLICATION_PROTOCOL_DEFINITION ( 'international standard', 'config_control_design', 1994, #121 ) ;
#119 = MECHANICAL_CONTEXT ( 'NONE', #138, 'mechanical' ) ;
#120 = SECURITY_CLASSIFICATION ( '', '', #140 ) ;
#121 = APPLICATION_CONTEXT ( 'configuration controlled 3d designs of mechanical parts and assemblies' ) ;
#122 = PERSON_AND_ORGANIZATION ( #74, #1 ) ;
#123 = DATE_AND_TIME ( #171, #156 ) ;
#124 = COORDINATED_UNIVERSAL_TIME_OFFSET ( 5, 0, .BEHIND. ) ;
#125 = PERSON_AND_ORGANIZATION ( #74, #1 ) ;
#126 = EDGE_LOOP ( 'NONE', ( #33, #37 ) ) ;
#127 = CARTESIAN_POINT ( 'NONE',  ( 0.0000000000000000000, 0.0000000000000000000, -0.5000000000000000000 ) ) ;
#128 = ADVANCED_FACE ( 'NONE', ( #114 ), #4, .T. ) ;
#129 = CARTESIAN_POINT ( 'NONE',  ( 0.0000000000000000000, 0.0000000000000000000, 0.5000000000000000000 ) ) ;
#130 = CARTESIAN_POINT ( 'NONE',  ( 6.349999999999999600, 7.776507174585692200E-016, 0.5000000000000000000 ) ) ;
#131 = VERTEX_POINT ( 'NONE', #31 ) ;
#132 = DIRECTION ( 'NONE',  ( -1.000000000000000000, 0.0000000000000000000, 0.0000000000000000000 ) ) ;
#133 = AXIS2_PLACEMENT_3D ( 'NONE', #89, #9, #102 ) ;
#134 = CC_DESIGN_DATE_AND_TIME_ASSIGNMENT ( #94, #42, ( #96 ) ) ;
#135 = ORIENTED_EDGE ( 'NONE', *, *, #80, .F. ) ;
#136 = AXIS2_PLACEMENT_3D ( 'NONE', #81, #142, #117 ) ;
#137 = LINE ( 'NONE', #101, #164 ) ;
#138 = APPLICATION_CONTEXT ( 'configuration controlled 3d designs of mechanical parts and assemblies' ) ;
#139 = CALENDAR_DATE ( 2018, 5, 10 ) ;
#140 = SECURITY_CLASSIFICATION_LEVEL ( 'unclassified' ) ;
#141 = PRODUCT_DEFINITION_FORMATION_WITH_SPECIFIED_SOURCE ( 'ANY', '', #19, .NOT_KNOWN. ) ;
#142 = DIRECTION ( 'NONE',  ( 0.0000000000000000000, 0.0000000000000000000, 1.000000000000000000 ) ) ;
#143 = PERSON_AND_ORGANIZATION ( #74, #1 ) ;
#144 = ORIENTED_EDGE ( 'NONE', *, *, #113, .T. ) ;
#145 = AXIS2_PLACEMENT_3D ( 'NONE', #90, #173, #38 ) ;
#146 = CALENDAR_DATE ( 2018, 5, 10 ) ;
#147 = DATE_AND_TIME ( #139, #116 ) ;
#148 = EDGE_LOOP ( 'NONE', ( #46, #15, #104, #82 ) ) ;
#149 = CC_DESIGN_PERSON_AND_ORGANIZATION_ASSIGNMENT ( #109, #25, ( #141 ) ) ;
#150 = DIRECTION ( 'NONE',  ( 0.0000000000000000000, 0.0000000000000000000, 1.000000000000000000 ) ) ;
#151 = DIRECTION ( 'NONE',  ( 1.000000000000000000, 0.0000000000000000000, 0.0000000000000000000 ) ) ;
#152 = LOCAL_TIME ( 16, 40, 16.00000000000000000, #124 ) ;
#153 = APPROVAL_ROLE ( '' ) ;
#154 = DATE_TIME_ROLE ( 'classification_date' ) ;
#155 = CC_DESIGN_PERSON_AND_ORGANIZATION_ASSIGNMENT ( #69, #55, ( #19 ) ) ;
#156 = LOCAL_TIME ( 16, 40, 16.00000000000000000, #57 ) ;
#157 = CLOSED_SHELL ( 'NONE', ( #128, #165, #115, #66 ) ) ;
#158 = DIRECTION ( 'NONE',  ( -0.0000000000000000000, -0.0000000000000000000, -1.000000000000000000 ) ) ;
#159 = AXIS2_PLACEMENT_3D ( 'NONE', #105, #107, #91 ) ;
#160 = CARTESIAN_POINT ( 'NONE',  ( 0.0000000000000000000, 0.0000000000000000000, 0.5000000000000000000 ) ) ;
#161 = APPROVAL ( #169, 'UNSPECIFIED' ) ;
#162 = APPROVAL_STATUS ( 'not_yet_approved' ) ;
#163 = DATE_AND_TIME ( #78, #10 ) ;
#164 = VECTOR ( 'NONE', #44, 1000.000000000000000 ) ;
#165 = ADVANCED_FACE ( 'NONE', ( #108 ), #172, .T. ) ;
#166 = PRODUCT_RELATED_PRODUCT_CATEGORY ( 'detail', '', ( #19 ) ) ;
#167 = VERTEX_POINT ( 'NONE', #174 ) ;
#168 = AXIS2_PLACEMENT_3D ( 'NONE', #127, #150, #87 ) ;
#169 = APPROVAL_STATUS ( 'not_yet_approved' ) ;
#170 = PLANE ( 'NONE',  #63 ) ;
#171 = CALENDAR_DATE ( 2018, 5, 10 ) ;
#172 = CYLINDRICAL_SURFACE ( 'NONE', #65, 6.349999999999999600 ) ;
#173 = DIRECTION ( 'NONE',  ( 0.0000000000000000000, 0.0000000000000000000, 1.000000000000000000 ) ) ;
#174 = CARTESIAN_POINT ( 'NONE',  ( 6.349999999999999600, 7.776507174585692200E-016, -0.5000000000000000000 ) ) ;
#175 = DIRECTION ( 'NONE',  ( 0.0000000000000000000, 0.0000000000000000000, 1.000000000000000000 ) ) ;
ENDSEC;
END-ISO-10303-21;
