ISO-10303-21;
HEADER;
FILE_DESCRIPTION (( 'STEP AP203' ),
    '1' );
FILE_NAME ('Web Model 84455_48066.step',
    '2017-04-03T16:44:59',
    ( '' ),
    ( '' ),
    'SwSTEP 2.0',
    'SolidWorks 2016',
    '' );
FILE_SCHEMA (( 'CONFIG_CONTROL_DESIGN' ));
ENDSEC;

DATA;
#1 = EDGE_CURVE ( 'NONE', #165, #49, #5, .T. ) ;
#2 = APPROVAL_PERSON_ORGANIZATION ( #46, #163, #152 ) ;
#3 = EDGE_CURVE ( 'NONE', #86, #165, #59, .T. ) ;
#4 = DIRECTION ( 'NONE',  ( -1.000000000000000000, 0.0000000000000000000, 0.0000000000000000000 ) ) ;
#5 = LINE ( 'NONE', #16, #24 ) ;
#6 = FACE_OUTER_BOUND ( 'NONE', #19, .T. ) ;
#7 = CARTESIAN_POINT ( 'NONE',  ( 0.0000000000000000000, 0.0000000000000000000, 3.000000000000000000 ) ) ;
#8 = DIRECTION ( 'NONE',  ( 1.000000000000000000, 0.0000000000000000000, 0.0000000000000000000 ) ) ;
#9 = EDGE_CURVE ( 'NONE', #86, #63, #168, .T. ) ;
#10 = DIRECTION ( 'NONE',  ( 1.000000000000000000, 0.0000000000000000000, 0.0000000000000000000 ) ) ;
#11 = SECURITY_CLASSIFICATION_LEVEL ( 'unclassified' ) ;
#12 = EDGE_CURVE ( 'NONE', #165, #86, #101, .T. ) ;
#13 = CARTESIAN_POINT ( 'NONE',  ( 12.50000000000000000, 1.530808498934191500E-015, 3.000000000000000000 ) ) ;
#14 = EDGE_CURVE ( 'NONE', #49, #63, #143, .T. ) ;
#15 = CALENDAR_DATE ( 2017, 3, 4 ) ;
#16 = CARTESIAN_POINT ( 'NONE',  ( -12.50000000000000000, 0.0000000000000000000, 3.000000000000000000 ) ) ;
#17 = CARTESIAN_POINT ( 'NONE',  ( 12.50000000000000000, 1.530808498934191500E-015, 0.0000000000000000000 ) ) ;
#18 = PRODUCT_DEFINITION_SHAPE ( 'NONE', 'NONE',  #23 ) ;
#19 = EDGE_LOOP ( 'NONE', ( #164, #84 ) ) ;
#20 = APPROVAL_STATUS ( 'not_yet_approved' ) ;
#21 = AXIS2_PLACEMENT_3D ( 'NONE', #44, #173, #4 ) ;
#22 = DATE_AND_TIME ( #60, #96 ) ;
#23 = PRODUCT_DEFINITION ( 'UNKNOWN', '', #111, #52 ) ;
#24 = VECTOR ( 'NONE', #41, 1000.000000000000000 ) ;
#25 = ORIENTED_EDGE ( 'NONE', *, *, #9, .T. ) ;
#26 = PERSON_AND_ORGANIZATION ( #58, #43 ) ;
#27 = DIRECTION ( 'NONE',  ( 0.0000000000000000000, 0.0000000000000000000, 1.000000000000000000 ) ) ;
#28 = APPROVAL ( #20, 'UNSPECIFIED' ) ;
#29 = LOCAL_TIME ( 12, 44, 59.00000000000000000, #68 ) ;
#30 = ORIENTED_EDGE ( 'NONE', *, *, #1, .F. ) ;
#31 = AXIS2_PLACEMENT_3D ( 'NONE', #106, #103, #129 ) ;
#32 = MECHANICAL_CONTEXT ( 'NONE', #75, 'mechanical' ) ;
#33 = CALENDAR_DATE ( 2017, 3, 4 ) ;
#34 = CC_DESIGN_DATE_AND_TIME_ASSIGNMENT ( #22, #85, ( #115 ) ) ;
#35 = ORIENTED_EDGE ( 'NONE', *, *, #3, .T. ) ;
#36 = APPROVAL_ROLE ( '' ) ;
#37 = DIRECTION ( 'NONE',  ( 1.000000000000000000, 0.0000000000000000000, 0.0000000000000000000 ) ) ;
#38 = DIRECTION ( 'NONE',  ( 0.0000000000000000000, 0.0000000000000000000, 1.000000000000000000 ) ) ;
#39 = DATE_AND_TIME ( #77, #113 ) ;
#40 = AXIS2_PLACEMENT_3D ( 'NONE', #144, #121, #142 ) ;
#41 = DIRECTION ( 'NONE',  ( -0.0000000000000000000, -0.0000000000000000000, -1.000000000000000000 ) ) ;
#42 = CC_DESIGN_APPROVAL ( #163, ( #23 ) ) ;
#43 = ORGANIZATION ( 'UNSPECIFIED', 'UNSPECIFIED', '' ) ;
#44 = CARTESIAN_POINT ( 'NONE',  ( 0.0000000000000000000, 0.0000000000000000000, 3.000000000000000000 ) ) ;
#45 = CC_DESIGN_PERSON_AND_ORGANIZATION_ASSIGNMENT ( #26, #94, ( #111 ) ) ;
#46 = PERSON_AND_ORGANIZATION ( #58, #43 ) ;
#47 = AXIS2_PLACEMENT_3D ( 'NONE', #123, #38, #8 ) ;
#48 = CC_DESIGN_SECURITY_CLASSIFICATION ( #115, ( #111 ) ) ;
#49 = VERTEX_POINT ( 'NONE', #99 ) ;
#50 =( NAMED_UNIT ( * ) PLANE_ANGLE_UNIT ( ) SI_UNIT ( $, .RADIAN. ) );
#51 = CC_DESIGN_DATE_AND_TIME_ASSIGNMENT ( #167, #88, ( #23 ) ) ;
#52 = DESIGN_CONTEXT ( 'detailed design', #130, 'design' ) ;
#53 = ADVANCED_FACE ( 'NONE', ( #135 ), #132, .T. ) ;
#54 = APPROVAL_ROLE ( '' ) ;
#55 = CARTESIAN_POINT ( 'NONE',  ( -12.50000000000000000, 0.0000000000000000000, 3.000000000000000000 ) ) ;
#56 = DIRECTION ( 'NONE',  ( 1.000000000000000000, 0.0000000000000000000, -0.0000000000000000000 ) ) ;
#57 = LOCAL_TIME ( 12, 44, 59.00000000000000000, #93 ) ;
#58 = PERSON ( 'UNSPECIFIED', 'UNSPECIFIED', 'UNSPECIFIED', ('UNSPECIFIED'), ('UNSPECIFIED'), ('UNSPECIFIED') ) ;
#59 = CIRCLE ( 'NONE', #79, 12.50000000000000000 ) ;
#60 = CALENDAR_DATE ( 2017, 3, 4 ) ;
#61 = CC_DESIGN_PERSON_AND_ORGANIZATION_ASSIGNMENT ( #137, #151, ( #23 ) ) ;
#62 = AXIS2_PLACEMENT_3D ( 'NONE', #110, #87, #76 ) ;
#63 = VERTEX_POINT ( 'NONE', #17 ) ;
#64 = APPROVAL ( #102, 'UNSPECIFIED' ) ;
#65 = PERSON_AND_ORGANIZATION ( #58, #43 ) ;
#66 = CC_DESIGN_APPROVAL ( #28, ( #111 ) ) ;
#67 = CIRCLE ( 'NONE', #139, 12.50000000000000000 ) ;
#68 = COORDINATED_UNIVERSAL_TIME_OFFSET ( 5, 0, .BEHIND. ) ;
#69 = APPROVAL_STATUS ( 'not_yet_approved' ) ;
#70 = PRODUCT ( 'Web Model 84455_48066', 'Web Model 84455_48066', '', ( #32 ) ) ;
#71 = AXIS2_PLACEMENT_3D ( 'NONE', #7, #146, #10 ) ;
#72 = LOCAL_TIME ( 12, 44, 59.00000000000000000, #108 ) ;
#73 = ORIENTED_EDGE ( 'NONE', *, *, #1, .T. ) ;
#74 = ORIENTED_EDGE ( 'NONE', *, *, #12, .T. ) ;
#75 = APPLICATION_CONTEXT ( 'configuration controlled 3d designs of mechanical parts and assemblies' ) ;
#76 = DIRECTION ( 'NONE',  ( 1.000000000000000000, 0.0000000000000000000, -0.0000000000000000000 ) ) ;
#77 = CALENDAR_DATE ( 2017, 3, 4 ) ;
#78 = PERSON_AND_ORGANIZATION_ROLE ( 'creator' ) ;
#79 = AXIS2_PLACEMENT_3D ( 'NONE', #155, #95, #37 ) ;
#80 = CYLINDRICAL_SURFACE ( 'NONE', #31, 12.50000000000000000 ) ;
#81 = PRODUCT_RELATED_PRODUCT_CATEGORY ( 'detail', '', ( #70 ) ) ;
#82 = PERSON_AND_ORGANIZATION ( #58, #43 ) ;
#83 = PERSON_AND_ORGANIZATION_ROLE ( 'design_owner' ) ;
#84 = ORIENTED_EDGE ( 'NONE', *, *, #92, .F. ) ;
#85 = DATE_TIME_ROLE ( 'classification_date' ) ;
#86 = VERTEX_POINT ( 'NONE', #136 ) ;
#87 = DIRECTION ( 'NONE',  ( 0.0000000000000000000, 0.0000000000000000000, 1.000000000000000000 ) ) ;
#88 = DATE_TIME_ROLE ( 'creation_date' ) ;
#89 = CC_DESIGN_PERSON_AND_ORGANIZATION_ASSIGNMENT ( #65, #78, ( #111 ) ) ;
#90 = DIRECTION ( 'NONE',  ( -0.0000000000000000000, -0.0000000000000000000, -1.000000000000000000 ) ) ;
#91 = SHAPE_DEFINITION_REPRESENTATION ( #18, #170 ) ;
#92 = EDGE_CURVE ( 'NONE', #63, #49, #67, .T. ) ;
#93 = COORDINATED_UNIVERSAL_TIME_OFFSET ( 5, 0, .BEHIND. ) ;
#94 = PERSON_AND_ORGANIZATION_ROLE ( 'design_supplier' ) ;
#95 = DIRECTION ( 'NONE',  ( 0.0000000000000000000, 0.0000000000000000000, 1.000000000000000000 ) ) ;
#96 = LOCAL_TIME ( 12, 44, 59.00000000000000000, #127 ) ;
#97 = PERSON_AND_ORGANIZATION_ROLE ( 'classification_officer' ) ;
#98 = ORIENTED_EDGE ( 'NONE', *, *, #14, .T. ) ;
#99 = CARTESIAN_POINT ( 'NONE',  ( -12.50000000000000000, 0.0000000000000000000, 0.0000000000000000000 ) ) ;
#100 = APPROVAL_DATE_TIME ( #131, #28 ) ;
#101 = CIRCLE ( 'NONE', #71, 12.50000000000000000 ) ;
#102 = APPROVAL_STATUS ( 'not_yet_approved' ) ;
#103 = DIRECTION ( 'NONE',  ( -0.0000000000000000000, -0.0000000000000000000, -1.000000000000000000 ) ) ;
#104 = APPLICATION_PROTOCOL_DEFINITION ( 'international standard', 'config_control_design', 1994, #130 ) ;
#105 = APPROVAL_PERSON_ORGANIZATION ( #134, #28, #36 ) ;
#106 = CARTESIAN_POINT ( 'NONE',  ( 0.0000000000000000000, 0.0000000000000000000, 3.000000000000000000 ) ) ;
#107 = CC_DESIGN_APPROVAL ( #64, ( #115 ) ) ;
#108 = COORDINATED_UNIVERSAL_TIME_OFFSET ( 5, 0, .BEHIND. ) ;
#109 = CC_DESIGN_PERSON_AND_ORGANIZATION_ASSIGNMENT ( #158, #97, ( #115 ) ) ;
#110 = CARTESIAN_POINT ( 'NONE',  ( 0.0000000000000000000, 0.0000000000000000000, 3.000000000000000000 ) ) ;
#111 = PRODUCT_DEFINITION_FORMATION_WITH_SPECIFIED_SOURCE ( 'ANY', '', #70, .NOT_KNOWN. ) ;
#112 =( LENGTH_UNIT ( ) NAMED_UNIT ( * ) SI_UNIT ( .MILLI., .METRE. ) );
#113 = LOCAL_TIME ( 12, 44, 59.00000000000000000, #141 ) ;
#114 = FACE_OUTER_BOUND ( 'NONE', #149, .T. ) ;
#115 = SECURITY_CLASSIFICATION ( '', '', #11 ) ;
#116 = MANIFOLD_SOLID_BREP ( 'Extrude1', #119 ) ;
#117 = DIRECTION ( 'NONE',  ( 1.000000000000000000, 0.0000000000000000000, 0.0000000000000000000 ) ) ;
#118 = EDGE_LOOP ( 'NONE', ( #74, #35 ) ) ;
#119 = CLOSED_SHELL ( 'NONE', ( #172, #160, #53, #171 ) ) ;
#120 = PLANE ( 'NONE',  #156 ) ;
#121 = DIRECTION ( 'NONE',  ( 0.0000000000000000000, 0.0000000000000000000, 1.000000000000000000 ) ) ;
#122 = APPROVAL_DATE_TIME ( #148, #64 ) ;
#123 = CARTESIAN_POINT ( 'NONE',  ( 0.0000000000000000000, 0.0000000000000000000, 0.0000000000000000000 ) ) ;
#124 = VECTOR ( 'NONE', #90, 1000.000000000000000 ) ;
#125 = APPROVAL_PERSON_ORGANIZATION ( #153, #64, #54 ) ;
#126 = CYLINDRICAL_SURFACE ( 'NONE', #21, 12.50000000000000000 ) ;
#127 = COORDINATED_UNIVERSAL_TIME_OFFSET ( 5, 0, .BEHIND. ) ;
#128 = DIRECTION ( 'NONE',  ( 0.0000000000000000000, 0.0000000000000000000, 1.000000000000000000 ) ) ;
#129 = DIRECTION ( 'NONE',  ( -1.000000000000000000, 0.0000000000000000000, 0.0000000000000000000 ) ) ;
#130 = APPLICATION_CONTEXT ( 'configuration controlled 3d designs of mechanical parts and assemblies' ) ;
#131 = DATE_AND_TIME ( #162, #29 ) ;
#132 = PLANE ( 'NONE',  #62 ) ;
#133 = ORIENTED_EDGE ( 'NONE', *, *, #3, .F. ) ;
#134 = PERSON_AND_ORGANIZATION ( #58, #43 ) ;
#135 = FACE_OUTER_BOUND ( 'NONE', #118, .T. ) ;
#136 = CARTESIAN_POINT ( 'NONE',  ( 12.50000000000000000, 1.530808498934191500E-015, 3.000000000000000000 ) ) ;
#137 = PERSON_AND_ORGANIZATION ( #58, #43 ) ;
#138 = CARTESIAN_POINT ( 'NONE',  ( 0.0000000000000000000, 0.0000000000000000000, 0.0000000000000000000 ) ) ;
#139 = AXIS2_PLACEMENT_3D ( 'NONE', #166, #128, #117 ) ;
#140 = UNCERTAINTY_MEASURE_WITH_UNIT (LENGTH_MEASURE( 1.000000000000000100E-005 ), #112, 'distance_accuracy_value', 'NONE');
#141 = COORDINATED_UNIVERSAL_TIME_OFFSET ( 5, 0, .BEHIND. ) ;
#142 = DIRECTION ( 'NONE',  ( 1.000000000000000000, 0.0000000000000000000, 0.0000000000000000000 ) ) ;
#143 = CIRCLE ( 'NONE', #47, 12.50000000000000000 ) ;
#144 = CARTESIAN_POINT ( 'NONE',  ( 0.0000000000000000000, 0.0000000000000000000, 0.0000000000000000000 ) ) ;
#145 = APPLICATION_PROTOCOL_DEFINITION ( 'international standard', 'config_control_design', 1994, #75 ) ;
#146 = DIRECTION ( 'NONE',  ( 0.0000000000000000000, 0.0000000000000000000, 1.000000000000000000 ) ) ;
#147 = ORIENTED_EDGE ( 'NONE', *, *, #9, .F. ) ;
#148 = DATE_AND_TIME ( #15, #57 ) ;
#149 = EDGE_LOOP ( 'NONE', ( #133, #25, #150, #30 ) ) ;
#150 = ORIENTED_EDGE ( 'NONE', *, *, #92, .T. ) ;
#151 = PERSON_AND_ORGANIZATION_ROLE ( 'creator' ) ;
#152 = APPROVAL_ROLE ( '' ) ;
#153 = PERSON_AND_ORGANIZATION ( #58, #43 ) ;
#154 = ORIENTED_EDGE ( 'NONE', *, *, #12, .F. ) ;
#155 = CARTESIAN_POINT ( 'NONE',  ( 0.0000000000000000000, 0.0000000000000000000, 3.000000000000000000 ) ) ;
#156 = AXIS2_PLACEMENT_3D ( 'NONE', #138, #27, #56 ) ;
#157 = FACE_OUTER_BOUND ( 'NONE', #175, .T. ) ;
#158 = PERSON_AND_ORGANIZATION ( #58, #43 ) ;
#159 = CC_DESIGN_PERSON_AND_ORGANIZATION_ASSIGNMENT ( #82, #83, ( #70 ) ) ;
#160 = ADVANCED_FACE ( 'NONE', ( #157 ), #80, .T. ) ;
#161 =( NAMED_UNIT ( * ) SI_UNIT ( $, .STERADIAN. ) SOLID_ANGLE_UNIT ( ) );
#162 = CALENDAR_DATE ( 2017, 3, 4 ) ;
#163 = APPROVAL ( #69, 'UNSPECIFIED' ) ;
#164 = ORIENTED_EDGE ( 'NONE', *, *, #14, .F. ) ;
#165 = VERTEX_POINT ( 'NONE', #55 ) ;
#166 = CARTESIAN_POINT ( 'NONE',  ( 0.0000000000000000000, 0.0000000000000000000, 0.0000000000000000000 ) ) ;
#167 = DATE_AND_TIME ( #33, #72 ) ;
#168 = LINE ( 'NONE', #13, #124 ) ;
#169 =( GEOMETRIC_REPRESENTATION_CONTEXT ( 3 ) GLOBAL_UNCERTAINTY_ASSIGNED_CONTEXT ( ( #140 ) ) GLOBAL_UNIT_ASSIGNED_CONTEXT ( ( #112, #50, #161 ) ) REPRESENTATION_CONTEXT ( 'NONE', 'WORKASPACE' ) );
#170 = ADVANCED_BREP_SHAPE_REPRESENTATION ( 'Web Model 84455_48066', ( #116, #40 ), #169 ) ;
#171 = ADVANCED_FACE ( 'NONE', ( #6 ), #120, .F. ) ;
#172 = ADVANCED_FACE ( 'NONE', ( #114 ), #126, .T. ) ;
#173 = DIRECTION ( 'NONE',  ( -0.0000000000000000000, -0.0000000000000000000, -1.000000000000000000 ) ) ;
#174 = APPROVAL_DATE_TIME ( #39, #163 ) ;
#175 = EDGE_LOOP ( 'NONE', ( #147, #154, #73, #98 ) ) ;
ENDSEC;
END-ISO-10303-21;
