ISO-10303-21;
HEADER;
FILE_DESCRIPTION (( 'STEP AP203' ),
    '1' );
FILE_NAME ('TTN047624-E0W.STEP',
    '2019-05-30T15:05:56',
    ( '' ),
    ( '' ),
    'SwSTEP 2.0',
    'SolidWorks 2018',
    '' );
FILE_SCHEMA (( 'CONFIG_CONTROL_DESIGN' ));
ENDSEC;

DATA;
#1 = EDGE_CURVE ( 'NONE', #184, #273, #122, .T. ) ;
#2 = DIRECTION ( 'NONE',  ( 0.0000000000000000000, -3.061515884555943639E-16, 1.000000000000000000 ) ) ;
#3 = CARTESIAN_POINT ( 'NONE',  ( 0.0000000000000000000, 12.69999999999999929, 0.9438095518059042011 ) ) ;
#4 = CIRCLE ( 'NONE', #161, 12.50013371087602110 ) ;
#5 = APPROVAL ( #158, 'UNSPECIFIED' ) ;
#6 = DIRECTION ( 'NONE',  ( 8.853404992781523741E-17, -0.7229353801394495793, -0.6909156505266249582 ) ) ;
#7 = DIRECTION ( 'NONE',  ( 0.0000000000000000000, 1.000000000000000000, 3.073328992872296367E-16 ) ) ;
#8 = APPROVAL_DATE_TIME ( #24, #90 ) ;
#9 = EDGE_LOOP ( 'NONE', ( #231, #143, #203, #89 ) ) ;
#10 = COORDINATED_UNIVERSAL_TIME_OFFSET ( 5, 0, .BEHIND. ) ;
#11 = CARTESIAN_POINT ( 'NONE',  ( 0.0000000000000000000, -4.554369515876158203E-16, 0.9438095518059003153 ) ) ;
#12 = CARTESIAN_POINT ( 'NONE',  ( 0.0000000000000000000, 6.846389996973066008E-14, 0.8561904481941828848 ) ) ;
#13 = ORIENTED_EDGE ( 'NONE', *, *, #33, .T. ) ;
#14 = CARTESIAN_POINT ( 'NONE',  ( 1.555301434917138433E-15, -12.69999999999999929, 0.9438095518058964295 ) ) ;
#15 = APPROVAL_PERSON_ORGANIZATION ( #73, #5, #287 ) ;
#16 = DIRECTION ( 'NONE',  ( 0.0000000000000000000, 1.000000000000000000, 3.073328992872296367E-16 ) ) ;
#17 = PERSON_AND_ORGANIZATION_ROLE ( 'creator' ) ;
#18 = ORIENTED_EDGE ( 'NONE', *, *, #22, .T. ) ;
#19 = EDGE_CURVE ( 'NONE', #278, #99, #133, .T. ) ;
#20 = CYLINDRICAL_SURFACE ( 'NONE', #183, 12.69999999999999929 ) ;
#21 = CALENDAR_DATE ( 2019, 30, 5 ) ;
#22 = EDGE_CURVE ( 'NONE', #278, #222, #181, .T. ) ;
#23 = VECTOR ( 'NONE', #6, 1000.000000000000114 ) ;
#24 = DATE_AND_TIME ( #163, #46 ) ;
#25 = CARTESIAN_POINT ( 'NONE',  ( 0.0000000000000000000, 1.836909530733571064E-16, -1.143809551805816005 ) ) ;
#26 = EDGE_CURVE ( 'NONE', #184, #81, #293, .T. ) ;
#27 = CC_DESIGN_DATE_AND_TIME_ASSIGNMENT ( #271, #86, ( #175 ) ) ;
#28 = CARTESIAN_POINT ( 'NONE',  ( 0.0000000000000000000, 12.50013371087548997, 1.134823508187114527 ) ) ;
#29 = ORIENTED_EDGE ( 'NONE', *, *, #94, .F. ) ;
#30 = VERTEX_POINT ( 'NONE', #3 ) ;
#31 = CARTESIAN_POINT ( 'NONE',  ( 1.543054966925664878E-15, 12.49999999999999645, -1.143809551805812230 ) ) ;
#32 = FACE_OUTER_BOUND ( 'NONE', #201, .T. ) ;
#33 = EDGE_CURVE ( 'NONE', #99, #30, #194, .T. ) ;
#34 = DIRECTION ( 'NONE',  ( -0.0000000000000000000, 3.061515884556191637E-16, -1.000000000000000000 ) ) ;
#35 = CARTESIAN_POINT ( 'NONE',  ( 1.530824873793752991E-15, -12.50013371087538694, 1.134823508187110530 ) ) ;
#36 = CC_DESIGN_APPROVAL ( #5, ( #288 ) ) ;
#37 = CARTESIAN_POINT ( 'NONE',  ( 0.0000000000000000000, 12.69999999999999929, -0.9438095518058098321 ) ) ;
#38 = CONICAL_SURFACE ( 'NONE', #111, 12.69999999999999929, 0.8080414662313800678 ) ;
#39 = CARTESIAN_POINT ( 'NONE',  ( 0.0000000000000000000, 1.836909530733571311E-16, -1.143809551805816005 ) ) ;
#40 = ADVANCED_FACE ( 'NONE', ( #250 ), #110, .T. ) ;
#41 = DIRECTION ( 'NONE',  ( 0.0000000000000000000, -3.061515884555943639E-16, 1.000000000000000000 ) ) ;
#42 = UNCERTAINTY_MEASURE_WITH_UNIT (LENGTH_MEASURE( 1.000000000000000082E-05 ), #199, 'distance_accuracy_value', 'NONE');
#43 = CARTESIAN_POINT ( 'NONE',  ( 0.0000000000000000000, 1.224606353822375040E-16, -0.9438095518058137179 ) ) ;
#44 = AXIS2_PLACEMENT_3D ( 'NONE', #173, #291, #88 ) ;
#45 = VECTOR ( 'NONE', #208, 1000.000000000000000 ) ;
#46 = LOCAL_TIME ( 11, 5, 56.00000000000000000, #106 ) ;
#47 = PERSON_AND_ORGANIZATION ( #204, #274 ) ;
#48 = EDGE_CURVE ( 'NONE', #176, #278, #4, .T. ) ;
#49 = APPROVAL ( #159, 'UNSPECIFIED' ) ;
#50 = LINE ( 'NONE', #129, #45 ) ;
#51 = CARTESIAN_POINT ( 'NONE',  ( 0.0000000000000000000, 1.836909530733571311E-16, -1.143809551805816005 ) ) ;
#52 = CC_DESIGN_PERSON_AND_ORGANIZATION_ASSIGNMENT ( #245, #17, ( #288 ) ) ;
#53 = SHAPE_DEFINITION_REPRESENTATION ( #268, #259 ) ;
#54 = DIRECTION ( 'NONE',  ( 1.000000000000000000, 0.0000000000000000000, -0.0000000000000000000 ) ) ;
#55 = DIRECTION ( 'NONE',  ( 0.0000000000000000000, -3.061515884556191637E-16, 1.000000000000000000 ) ) ;
#56 = FACE_OUTER_BOUND ( 'NONE', #170, .T. ) ;
#57 = DIRECTION ( 'NONE',  ( 0.0000000000000000000, -3.061515884556191637E-16, 1.000000000000000000 ) ) ;
#58 = AXIS2_PLACEMENT_3D ( 'NONE', #43, #41, #16 ) ;
#59 = DIRECTION ( 'NONE',  ( -0.0000000000000000000, 3.061515884555943146E-16, -1.000000000000000000 ) ) ;
#60 = ORIENTED_EDGE ( 'NONE', *, *, #26, .T. ) ;
#61 = DIRECTION ( 'NONE',  ( 0.0000000000000000000, 0.7229353801394500234, -0.6909156505266245141 ) ) ;
#62 = ADVANCED_FACE ( 'NONE', ( #32 ), #77, .F. ) ;
#63 = DIRECTION ( 'NONE',  ( 0.0000000000000000000, -1.000000000000000000, -3.073328992872296367E-16 ) ) ;
#64 = ADVANCED_FACE ( 'NONE', ( #166 ), #226, .T. ) ;
#65 = PERSON_AND_ORGANIZATION_ROLE ( 'design_owner' ) ;
#66 = EDGE_LOOP ( 'NONE', ( #162, #84, #130 ) ) ;
#67 = PERSON_AND_ORGANIZATION_ROLE ( 'creator' ) ;
#68 = EDGE_CURVE ( 'NONE', #81, #95, #119, .T. ) ;
#69 = ORIENTED_EDGE ( 'NONE', *, *, #209, .T. ) ;
#70 =( NAMED_UNIT ( * ) PLANE_ANGLE_UNIT ( ) SI_UNIT ( $, .RADIAN. ) );
#71 = CIRCLE ( 'NONE', #116, 12.69999999999999929 ) ;
#72 = EDGE_LOOP ( 'NONE', ( #69, #60 ) ) ;
#73 = PERSON_AND_ORGANIZATION ( #204, #274 ) ;
#74 = ADVANCED_FACE ( 'NONE', ( #56 ), #20, .T. ) ;
#75 = EDGE_LOOP ( 'NONE', ( #244, #232, #300, #29 ) ) ;
#76 = CALENDAR_DATE ( 2019, 30, 5 ) ;
#77 = SPHERICAL_SURFACE ( 'NONE', #202, 280.5319999999999823 ) ;
#78 = ORIENTED_EDGE ( 'NONE', *, *, #113, .T. ) ;
#79 = DIRECTION ( 'NONE',  ( -0.0000000000000000000, 3.061515884556191637E-16, -1.000000000000000000 ) ) ;
#80 = CC_DESIGN_APPROVAL ( #49, ( #175 ) ) ;
#81 = VERTEX_POINT ( 'NONE', #255 ) ;
#82 = DIRECTION ( 'NONE',  ( 0.0000000000000000000, -0.7071067811865474617, 0.7071067811865474617 ) ) ;
#83 = DIRECTION ( 'NONE',  ( 0.0000000000000000000, 1.000000000000000000, 3.061515884555943146E-16 ) ) ;
#84 = ORIENTED_EDGE ( 'NONE', *, *, #126, .T. ) ;
#85 = SECURITY_CLASSIFICATION_LEVEL ( 'unclassified' ) ;
#86 = DATE_TIME_ROLE ( 'classification_date' ) ;
#87 = DATE_TIME_ROLE ( 'creation_date' ) ;
#88 = DIRECTION ( 'NONE',  ( 0.0000000000000000000, 0.0000000000000000000, 1.000000000000000000 ) ) ;
#89 = ORIENTED_EDGE ( 'NONE', *, *, #68, .F. ) ;
#90 = APPROVAL ( #215, 'UNSPECIFIED' ) ;
#91 = VECTOR ( 'NONE', #225, 1000.000000000000114 ) ;
#92 = CC_DESIGN_PERSON_AND_ORGANIZATION_ASSIGNMENT ( #114, #65, ( #123 ) ) ;
#93 = PERSON_AND_ORGANIZATION ( #204, #274 ) ;
#94 = EDGE_CURVE ( 'NONE', #176, #30, #174, .T. ) ;
#95 = VERTEX_POINT ( 'NONE', #150 ) ;
#96 = ORIENTED_EDGE ( 'NONE', *, *, #33, .F. ) ;
#97 = CARTESIAN_POINT ( 'NONE',  ( 1.530808498934191127E-15, 12.49999999999999645, -1.143809551805812230 ) ) ;
#98 = FACE_OUTER_BOUND ( 'NONE', #262, .T. ) ;
#99 = VERTEX_POINT ( 'NONE', #14 ) ;
#100 = DIRECTION ( 'NONE',  ( 0.0000000000000000000, 1.000000000000000000, 3.122502256758253756E-16 ) ) ;
#101 = FACE_OUTER_BOUND ( 'NONE', #75, .T. ) ;
#102 = CARTESIAN_POINT ( 'NONE',  ( 0.0000000000000000000, 1.836909530733571064E-16, -1.143809551805816005 ) ) ;
#103 = CC_DESIGN_APPROVAL ( #90, ( #230 ) ) ;
#104 = PERSON_AND_ORGANIZATION_ROLE ( 'classification_officer' ) ;
#105 = APPLICATION_PROTOCOL_DEFINITION ( 'international standard', 'config_control_design', 1994, #177 ) ;
#106 = COORDINATED_UNIVERSAL_TIME_OFFSET ( 5, 0, .BEHIND. ) ;
#107 = DIRECTION ( 'NONE',  ( 0.0000000000000000000, 0.0000000000000000000, 1.000000000000000000 ) ) ;
#108 = ADVANCED_FACE ( 'NONE', ( #101 ), #152, .T. ) ;
#109 = DIRECTION ( 'NONE',  ( 1.000000000000000000, 0.0000000000000000000, 0.0000000000000000000 ) ) ;
#110 = CONICAL_SURFACE ( 'NONE', #145, 12.49999999999999645, 0.7853981633974479459 ) ;
#111 = AXIS2_PLACEMENT_3D ( 'NONE', #11, #79, #211 ) ;
#112 = COORDINATED_UNIVERSAL_TIME_OFFSET ( 5, 0, .BEHIND. ) ;
#113 = EDGE_CURVE ( 'NONE', #30, #273, #50, .T. ) ;
#114 = PERSON_AND_ORGANIZATION ( #204, #274 ) ;
#115 = LOCAL_TIME ( 11, 5, 56.00000000000000000, #112 ) ;
#116 = AXIS2_PLACEMENT_3D ( 'NONE', #290, #266, #196 ) ;
#117 = EDGE_LOOP ( 'NONE', ( #296, #279, #299, #121 ) ) ;
#118 = CONICAL_SURFACE ( 'NONE', #167, 12.49999999999999645, 0.7853981633974479459 ) ;
#119 = LINE ( 'NONE', #229, #138 ) ;
#120 = PERSON_AND_ORGANIZATION ( #204, #274 ) ;
#121 = ORIENTED_EDGE ( 'NONE', *, *, #292, .F. ) ;
#122 = LINE ( 'NONE', #97, #91 ) ;
#123 = PRODUCT ( 'TTN047624-E0W', 'TTN047624-E0W', '', ( #200 ) ) ;
#124 = AXIS2_PLACEMENT_3D ( 'NONE', #102, #234, #100 ) ;
#125 = DIRECTION ( 'NONE',  ( -0.0000000000000000000, 3.061515884555943146E-16, -1.000000000000000000 ) ) ;
#126 = EDGE_CURVE ( 'NONE', #278, #176, #212, .T. ) ;
#127 = CARTESIAN_POINT ( 'NONE',  ( 0.0000000000000000000, 1.836909530733565148E-16, -1.143809551805814229 ) ) ;
#128 = PERSON_AND_ORGANIZATION ( #204, #274 ) ;
#129 = CARTESIAN_POINT ( 'NONE',  ( 0.0000000000000000000, 12.69999999999999929, -1.143809551805810232 ) ) ;
#130 = ORIENTED_EDGE ( 'NONE', *, *, #251, .T. ) ;
#131 = DIRECTION ( 'NONE',  ( 0.0000000000000000000, 1.000000000000000000, 3.957562861367532226E-16 ) ) ;
#132 = AXIS2_PLACEMENT_3D ( 'NONE', #195, #34, #257 ) ;
#133 = LINE ( 'NONE', #148, #23 ) ;
#134 = APPLICATION_PROTOCOL_DEFINITION ( 'international standard', 'config_control_design', 1994, #289 ) ;
#135 = CC_DESIGN_PERSON_AND_ORGANIZATION_ASSIGNMENT ( #252, #67, ( #230 ) ) ;
#136 = CARTESIAN_POINT ( 'NONE',  ( 0.0000000000000000000, 0.0000000000000000000, 0.0000000000000000000 ) ) ;
#137 = DATE_AND_TIME ( #76, #193 ) ;
#138 = VECTOR ( 'NONE', #82, 1000.000000000000114 ) ;
#139 = CC_DESIGN_DATE_AND_TIME_ASSIGNMENT ( #137, #87, ( #230 ) ) ;
#140 = FACE_OUTER_BOUND ( 'NONE', #9, .T. ) ;
#141 = ORIENTED_EDGE ( 'NONE', *, *, #94, .T. ) ;
#142 = DIRECTION ( 'NONE',  ( -0.0000000000000000000, 3.061515884555943146E-16, -1.000000000000000000 ) ) ;
#143 = ORIENTED_EDGE ( 'NONE', *, *, #1, .T. ) ;
#144 = COORDINATED_UNIVERSAL_TIME_OFFSET ( 5, 0, .BEHIND. ) ;
#145 = AXIS2_PLACEMENT_3D ( 'NONE', #51, #2, #227 ) ;
#146 = DIRECTION ( 'NONE',  ( 0.0000000000000000000, 1.000000000000000000, 3.122502256758253756E-16 ) ) ;
#147 = ORIENTED_EDGE ( 'NONE', *, *, #19, .F. ) ;
#148 = CARTESIAN_POINT ( 'NONE',  ( 1.555301434917138433E-15, -12.69999999999999929, 0.9438095518058964295 ) ) ;
#149 = ORIENTED_EDGE ( 'NONE', *, *, #251, .F. ) ;
#150 = CARTESIAN_POINT ( 'NONE',  ( 1.555301434917138433E-15, -12.69999999999999929, -0.9438095518058176037 ) ) ;
#151 = ORIENTED_EDGE ( 'NONE', *, *, #270, .T. ) ;
#152 = CONICAL_SURFACE ( 'NONE', #188, 12.69999999999999929, 0.8080414662313800678 ) ;
#153 = CALENDAR_DATE ( 2019, 30, 5 ) ;
#154 = CARTESIAN_POINT ( 'NONE',  ( 0.0000000000000000000, 5.120096522290428163E-14, 1.134823508187114527 ) ) ;
#155 = PERSON_AND_ORGANIZATION_ROLE ( 'design_supplier' ) ;
#156 = LINE ( 'NONE', #264, #178 ) ;
#157 = DIRECTION ( 'NONE',  ( 0.0000000000000000000, -3.061515884555943639E-16, 1.000000000000000000 ) ) ;
#158 = APPROVAL_STATUS ( 'not_yet_approved' ) ;
#159 = APPROVAL_STATUS ( 'not_yet_approved' ) ;
#160 = DESIGN_CONTEXT ( 'detailed design', #289, 'design' ) ;
#161 = AXIS2_PLACEMENT_3D ( 'NONE', #154, #57, #285 ) ;
#162 = ORIENTED_EDGE ( 'NONE', *, *, #22, .F. ) ;
#163 = CALENDAR_DATE ( 2019, 30, 5 ) ;
#164 = APPROVAL_PERSON_ORGANIZATION ( #47, #49, #242 ) ;
#165 = CIRCLE ( 'NONE', #265, 12.69999999999999929 ) ;
#166 = FACE_OUTER_BOUND ( 'NONE', #263, .T. ) ;
#167 = AXIS2_PLACEMENT_3D ( 'NONE', #39, #157, #179 ) ;
#168 = ORIENTED_EDGE ( 'NONE', *, *, #292, .T. ) ;
#169 = CARTESIAN_POINT ( 'NONE',  ( 0.0000000000000000000, -3.459904823581439233E-14, 281.3881904481941660 ) ) ;
#170 = EDGE_LOOP ( 'NONE', ( #239, #13, #78, #168 ) ) ;
#171 = CARTESIAN_POINT ( 'NONE',  ( 0.0000000000000000000, 1.836909530733565148E-16, -1.143809551805814229 ) ) ;
#172 = ADVANCED_FACE ( 'NONE', ( #224 ), #276, .F. ) ;
#173 = CARTESIAN_POINT ( 'NONE',  ( 0.0000000000000000000, -3.459904823581439233E-14, 281.3881904481941660 ) ) ;
#174 = LINE ( 'NONE', #261, #256 ) ;
#175 = SECURITY_CLASSIFICATION ( '', '', #85 ) ;
#176 = VERTEX_POINT ( 'NONE', #28 ) ;
#177 = APPLICATION_CONTEXT ( 'configuration controlled 3d designs of mechanical parts and assemblies' ) ;
#178 = VECTOR ( 'NONE', #219, 1000.000000000000000 ) ;
#179 = DIRECTION ( 'NONE',  ( 0.0000000000000000000, -1.000000000000000000, -3.122502256758253756E-16 ) ) ;
#180 = ORIENTED_EDGE ( 'NONE', *, *, #113, .F. ) ;
#181 = CIRCLE ( 'NONE', #214, 280.5319999999999823 ) ;
#182 = APPROVAL_DATE_TIME ( #281, #49 ) ;
#183 = AXIS2_PLACEMENT_3D ( 'NONE', #127, #191, #284 ) ;
#184 = VERTEX_POINT ( 'NONE', #31 ) ;
#185 = LOCAL_TIME ( 11, 5, 56.00000000000000000, #301 ) ;
#186 = PRODUCT_RELATED_PRODUCT_CATEGORY ( 'detail', '', ( #123 ) ) ;
#187 = APPROVAL_DATE_TIME ( #246, #5 ) ;
#188 = AXIS2_PLACEMENT_3D ( 'NONE', #233, #282, #7 ) ;
#189 = CARTESIAN_POINT ( 'NONE',  ( 0.0000000000000000000, -3.459904823581439233E-14, 281.3881904481941660 ) ) ;
#190 = CARTESIAN_POINT ( 'NONE',  ( 0.0000000000000000000, 5.120096522290428163E-14, 1.134823508187114527 ) ) ;
#191 = DIRECTION ( 'NONE',  ( -0.0000000000000000000, 3.061515884555943146E-16, -1.000000000000000000 ) ) ;
#192 = CARTESIAN_POINT ( 'NONE',  ( 0.0000000000000000000, 1.836909530733571311E-16, -1.143809551805816005 ) ) ;
#193 = LOCAL_TIME ( 11, 5, 56.00000000000000000, #10 ) ;
#194 = CIRCLE ( 'NONE', #132, 12.69999999999999929 ) ;
#195 = CARTESIAN_POINT ( 'NONE',  ( 0.0000000000000000000, -4.554369515876137495E-16, 0.9438095518059003153 ) ) ;
#196 = DIRECTION ( 'NONE',  ( 0.0000000000000000000, 1.000000000000000000, 3.073328992872296367E-16 ) ) ;
#197 = DIRECTION ( 'NONE',  ( -0.0000000000000000000, 3.061515884556191637E-16, -1.000000000000000000 ) ) ;
#198 =( NAMED_UNIT ( * ) SI_UNIT ( $, .STERADIAN. ) SOLID_ANGLE_UNIT ( ) );
#199 =( LENGTH_UNIT ( ) NAMED_UNIT ( * ) SI_UNIT ( .MILLI., .METRE. ) );
#200 = MECHANICAL_CONTEXT ( 'NONE', #177, 'mechanical' ) ;
#201 = EDGE_LOOP ( 'NONE', ( #267, #18, #149 ) ) ;
#202 = AXIS2_PLACEMENT_3D ( 'NONE', #286, #54, #131 ) ;
#203 = ORIENTED_EDGE ( 'NONE', *, *, #275, .F. ) ;
#204 = PERSON ( 'UNSPECIFIED', 'UNSPECIFIED', 'UNSPECIFIED', ('UNSPECIFIED'), ('UNSPECIFIED'), ('UNSPECIFIED') ) ;
#205 = CIRCLE ( 'NONE', #58, 12.69999999999999929 ) ;
#206 = FACE_OUTER_BOUND ( 'NONE', #72, .T. ) ;
#207 = CIRCLE ( 'NONE', #44, 280.5319999999999823 ) ;
#208 = DIRECTION ( 'NONE',  ( -0.0000000000000000000, 3.061515884555943146E-16, -1.000000000000000000 ) ) ;
#209 = EDGE_CURVE ( 'NONE', #81, #184, #247, .T. ) ;
#210 = DIRECTION ( 'NONE',  ( 0.0000000000000000000, -1.000000000000000000, -3.122468856114564555E-16 ) ) ;
#211 = DIRECTION ( 'NONE',  ( 0.0000000000000000000, 1.000000000000000000, 3.073328992872296367E-16 ) ) ;
#212 = CIRCLE ( 'NONE', #248, 12.50013371087602110 ) ;
#213 = DIRECTION ( 'NONE',  ( 0.0000000000000000000, 1.000000000000000000, 3.073328992872296367E-16 ) ) ;
#214 = AXIS2_PLACEMENT_3D ( 'NONE', #189, #277, #253 ) ;
#215 = APPROVAL_STATUS ( 'not_yet_approved' ) ;
#216 = APPROVAL_PERSON_ORGANIZATION ( #93, #90, #221 ) ;
#217 = AXIS2_PLACEMENT_3D ( 'NONE', #25, #142, #146 ) ;
#218 = AXIS2_PLACEMENT_3D ( 'NONE', #192, #59, #83 ) ;
#219 = DIRECTION ( 'NONE',  ( -0.0000000000000000000, 3.061515884555943146E-16, -1.000000000000000000 ) ) ;
#220 = ADVANCED_FACE ( 'NONE', ( #98 ), #38, .T. ) ;
#221 = APPROVAL_ROLE ( '' ) ;
#222 = VERTEX_POINT ( 'NONE', #12 ) ;
#223 =( GEOMETRIC_REPRESENTATION_CONTEXT ( 3 ) GLOBAL_UNCERTAINTY_ASSIGNED_CONTEXT ( ( #42 ) ) GLOBAL_UNIT_ASSIGNED_CONTEXT ( ( #199, #70, #198 ) ) REPRESENTATION_CONTEXT ( 'NONE', 'WORKASPACE' ) );
#224 = FACE_OUTER_BOUND ( 'NONE', #66, .T. ) ;
#225 = DIRECTION ( 'NONE',  ( 8.659560562354929160E-17, 0.7071067811865470176, 0.7071067811865479058 ) ) ;
#226 = CYLINDRICAL_SURFACE ( 'NONE', #228, 12.69999999999999929 ) ;
#227 = DIRECTION ( 'NONE',  ( 0.0000000000000000000, -1.000000000000000000, -3.122502256758253756E-16 ) ) ;
#228 = AXIS2_PLACEMENT_3D ( 'NONE', #171, #125, #213 ) ;
#229 = CARTESIAN_POINT ( 'NONE',  ( 0.0000000000000000000, -12.49999999999999645, -1.143809551805820002 ) ) ;
#230 = PRODUCT_DEFINITION ( 'UNKNOWN', '', #288, #160 ) ;
#231 = ORIENTED_EDGE ( 'NONE', *, *, #26, .F. ) ;
#232 = ORIENTED_EDGE ( 'NONE', *, *, #19, .T. ) ;
#233 = CARTESIAN_POINT ( 'NONE',  ( 0.0000000000000000000, -4.554369515876158203E-16, 0.9438095518059003153 ) ) ;
#234 = DIRECTION ( 'NONE',  ( -0.0000000000000000000, 3.061515884555943146E-16, -1.000000000000000000 ) ) ;
#235 = LOCAL_TIME ( 11, 5, 56.00000000000000000, #144 ) ;
#236 = PLANE ( 'NONE',  #218 ) ;
#237 = DIRECTION ( 'NONE',  ( 1.000000000000000000, 0.0000000000000000000, -0.0000000000000000000 ) ) ;
#238 = ORIENTED_EDGE ( 'NONE', *, *, #48, .F. ) ;
#239 = ORIENTED_EDGE ( 'NONE', *, *, #270, .F. ) ;
#240 = ADVANCED_FACE ( 'NONE', ( #206 ), #236, .T. ) ;
#241 = ORIENTED_EDGE ( 'NONE', *, *, #275, .T. ) ;
#242 = APPROVAL_ROLE ( '' ) ;
#243 = CARTESIAN_POINT ( 'NONE',  ( 0.0000000000000000000, -4.554369515876137495E-16, 0.9438095518059003153 ) ) ;
#244 = ORIENTED_EDGE ( 'NONE', *, *, #126, .F. ) ;
#245 = PERSON_AND_ORGANIZATION ( #204, #274 ) ;
#246 = DATE_AND_TIME ( #21, #185 ) ;
#247 = CIRCLE ( 'NONE', #124, 12.49999999999999645 ) ;
#248 = AXIS2_PLACEMENT_3D ( 'NONE', #190, #55, #210 ) ;
#249 = CC_DESIGN_PERSON_AND_ORGANIZATION_ASSIGNMENT ( #128, #155, ( #288 ) ) ;
#250 = FACE_OUTER_BOUND ( 'NONE', #117, .T. ) ;
#251 = EDGE_CURVE ( 'NONE', #176, #222, #207, .T. ) ;
#252 = PERSON_AND_ORGANIZATION ( #204, #274 ) ;
#253 = DIRECTION ( 'NONE',  ( -1.224646799147353207E-16, 1.000000000000000000, 0.0000000000000000000 ) ) ;
#254 = MANIFOLD_SOLID_BREP ( 'TTN047625-1-solid1', #298 ) ;
#255 = CARTESIAN_POINT ( 'NONE',  ( 0.0000000000000000000, -12.49999999999999645, -1.143809551805820002 ) ) ;
#256 = VECTOR ( 'NONE', #61, 1000.000000000000114 ) ;
#257 = DIRECTION ( 'NONE',  ( 0.0000000000000000000, -1.000000000000000000, -3.073328992872296367E-16 ) ) ;
#258 = DIRECTION ( 'NONE',  ( 0.0000000000000000000, 1.000000000000000000, 3.957562861367532226E-16 ) ) ;
#259 = ADVANCED_BREP_SHAPE_REPRESENTATION ( 'TTN047624-E0W', ( #254, #272 ), #223 ) ;
#260 = ORIENTED_EDGE ( 'NONE', *, *, #297, .T. ) ;
#261 = CARTESIAN_POINT ( 'NONE',  ( 0.0000000000000000000, 12.69999999999999929, 0.9438095518059042011 ) ) ;
#262 = EDGE_LOOP ( 'NONE', ( #147, #238, #141, #96 ) ) ;
#263 = EDGE_LOOP ( 'NONE', ( #260, #151, #241, #180 ) ) ;
#264 = CARTESIAN_POINT ( 'NONE',  ( 1.555301434917138433E-15, -12.69999999999999929, -1.143809551805818003 ) ) ;
#265 = AXIS2_PLACEMENT_3D ( 'NONE', #243, #197, #63 ) ;
#266 = DIRECTION ( 'NONE',  ( 0.0000000000000000000, -3.061515884555943639E-16, 1.000000000000000000 ) ) ;
#267 = ORIENTED_EDGE ( 'NONE', *, *, #48, .T. ) ;
#268 = PRODUCT_DEFINITION_SHAPE ( 'NONE', 'NONE',  #230 ) ;
#269 = ADVANCED_FACE ( 'NONE', ( #140 ), #118, .T. ) ;
#270 = EDGE_CURVE ( 'NONE', #99, #95, #156, .T. ) ;
#271 = DATE_AND_TIME ( #153, #115 ) ;
#272 = AXIS2_PLACEMENT_3D ( 'NONE', #136, #107, #109 ) ;
#273 = VERTEX_POINT ( 'NONE', #37 ) ;
#274 = ORGANIZATION ( 'UNSPECIFIED', 'UNSPECIFIED', '' ) ;
#275 = EDGE_CURVE ( 'NONE', #95, #273, #71, .T. ) ;
#276 = SPHERICAL_SURFACE ( 'NONE', #280, 280.5319999999999823 ) ;
#277 = DIRECTION ( 'NONE',  ( 1.000000000000000000, 1.224646799147353207E-16, 3.749275628560213616E-32 ) ) ;
#278 = VERTEX_POINT ( 'NONE', #35 ) ;
#279 = ORIENTED_EDGE ( 'NONE', *, *, #209, .F. ) ;
#280 = AXIS2_PLACEMENT_3D ( 'NONE', #169, #237, #258 ) ;
#281 = DATE_AND_TIME ( #295, #235 ) ;
#282 = DIRECTION ( 'NONE',  ( -0.0000000000000000000, 3.061515884556191637E-16, -1.000000000000000000 ) ) ;
#283 = CC_DESIGN_PERSON_AND_ORGANIZATION_ASSIGNMENT ( #120, #104, ( #175 ) ) ;
#284 = DIRECTION ( 'NONE',  ( 0.0000000000000000000, 1.000000000000000000, 3.073328992872296367E-16 ) ) ;
#285 = DIRECTION ( 'NONE',  ( 0.0000000000000000000, -1.000000000000000000, -3.122468856114564555E-16 ) ) ;
#286 = CARTESIAN_POINT ( 'NONE',  ( 0.0000000000000000000, -3.459904823581439233E-14, 281.3881904481941660 ) ) ;
#287 = APPROVAL_ROLE ( '' ) ;
#288 = PRODUCT_DEFINITION_FORMATION_WITH_SPECIFIED_SOURCE ( 'ANY', '', #123, .NOT_KNOWN. ) ;
#289 = APPLICATION_CONTEXT ( 'configuration controlled 3d designs of mechanical parts and assemblies' ) ;
#290 = CARTESIAN_POINT ( 'NONE',  ( 0.0000000000000000000, 1.224606353822375040E-16, -0.9438095518058137179 ) ) ;
#291 = DIRECTION ( 'NONE',  ( -1.000000000000000000, 0.0000000000000000000, 0.0000000000000000000 ) ) ;
#292 = EDGE_CURVE ( 'NONE', #273, #95, #205, .T. ) ;
#293 = CIRCLE ( 'NONE', #217, 12.49999999999999645 ) ;
#294 = CC_DESIGN_SECURITY_CLASSIFICATION ( #175, ( #288 ) ) ;
#295 = CALENDAR_DATE ( 2019, 30, 5 ) ;
#296 = ORIENTED_EDGE ( 'NONE', *, *, #1, .F. ) ;
#297 = EDGE_CURVE ( 'NONE', #30, #99, #165, .T. ) ;
#298 = CLOSED_SHELL ( 'NONE', ( #108, #269, #62, #64, #240, #74, #172, #40, #220 ) ) ;
#299 = ORIENTED_EDGE ( 'NONE', *, *, #68, .T. ) ;
#300 = ORIENTED_EDGE ( 'NONE', *, *, #297, .F. ) ;
#301 = COORDINATED_UNIVERSAL_TIME_OFFSET ( 5, 0, .BEHIND. ) ;
ENDSEC;
END-ISO-10303-21;
