ISO-10303-21;
HEADER;
FILE_DESCRIPTION (( 'STEP AP203' ),
    '1' );
FILE_NAME ('Web Model 47230_49635.step',
    '2019-01-07T15:31:28',
    ( '' ),
    ( '' ),
    'SwSTEP 2.0',
    'SolidWorks 2016',
    '' );
FILE_SCHEMA (( 'CONFIG_CONTROL_DESIGN' ));
ENDSEC;

DATA;
#1 = APPLICATION_PROTOCOL_DEFINITION ( 'international standard', 'config_control_design', 1994, #94 ) ;
#2 = DIRECTION ( 'NONE',  ( 0.0000000000000000000, 0.0000000000000000000, 1.000000000000000000 ) ) ;
#3 = APPROVAL_ROLE ( '' ) ;
#4 =( NAMED_UNIT ( * ) SI_UNIT ( $, .STERADIAN. ) SOLID_ANGLE_UNIT ( ) );
#5 = MANIFOLD_SOLID_BREP ( 'Boss-Extrude1', #163 ) ;
#6 =( GEOMETRIC_REPRESENTATION_CONTEXT ( 3 ) GLOBAL_UNCERTAINTY_ASSIGNED_CONTEXT ( ( #76 ) ) GLOBAL_UNIT_ASSIGNED_CONTEXT ( ( #43, #42, #4 ) ) REPRESENTATION_CONTEXT ( 'NONE', 'WORKASPACE' ) );
#7 = VERTEX_POINT ( 'NONE', #70 ) ;
#8 = DIRECTION ( 'NONE',  ( -0.0000000000000000000, -0.0000000000000000000, -1.000000000000000000 ) ) ;
#9 = LOCAL_TIME ( 10, 31, 28.00000000000000000, #139 ) ;
#10 = LINE ( 'NONE', #173, #103 ) ;
#11 = VECTOR ( 'NONE', #69, 1000.000000000000000 ) ;
#12 = DIRECTION ( 'NONE',  ( -0.0000000000000000000, -0.0000000000000000000, -1.000000000000000000 ) ) ;
#13 = APPROVAL_PERSON_ORGANIZATION ( #133, #104, #159 ) ;
#14 = CIRCLE ( 'NONE', #127, 25.00000000000000000 ) ;
#15 = EDGE_CURVE ( 'NONE', #142, #169, #168, .T. ) ;
#16 = APPLICATION_PROTOCOL_DEFINITION ( 'international standard', 'config_control_design', 1994, #20 ) ;
#17 = DIRECTION ( 'NONE',  ( -1.000000000000000000, 0.0000000000000000000, 0.0000000000000000000 ) ) ;
#18 = DATE_TIME_ROLE ( 'creation_date' ) ;
#19 = DIRECTION ( 'NONE',  ( 0.0000000000000000000, 0.0000000000000000000, 1.000000000000000000 ) ) ;
#20 = APPLICATION_CONTEXT ( 'configuration controlled 3d designs of mechanical parts and assemblies' ) ;
#21 = PERSON_AND_ORGANIZATION_ROLE ( 'design_supplier' ) ;
#22 = PLANE ( 'NONE',  #129 ) ;
#23 = CARTESIAN_POINT ( 'NONE',  ( 0.0000000000000000000, 0.0000000000000000000, 2.000000000000000000 ) ) ;
#24 = CALENDAR_DATE ( 2019, 7, 1 ) ;
#25 = LOCAL_TIME ( 10, 31, 28.00000000000000000, #72 ) ;
#26 = CC_DESIGN_DATE_AND_TIME_ASSIGNMENT ( #37, #160, ( #95 ) ) ;
#27 = FACE_OUTER_BOUND ( 'NONE', #130, .T. ) ;
#28 = CC_DESIGN_DATE_AND_TIME_ASSIGNMENT ( #38, #18, ( #51 ) ) ;
#29 = COORDINATED_UNIVERSAL_TIME_OFFSET ( 5, 0, .BEHIND. ) ;
#30 = CARTESIAN_POINT ( 'NONE',  ( 25.00000000000000000, 3.061616997868383000E-015, 2.000000000000000000 ) ) ;
#31 = CALENDAR_DATE ( 2019, 7, 1 ) ;
#32 = PERSON_AND_ORGANIZATION ( #121, #149 ) ;
#33 = DIRECTION ( 'NONE',  ( 0.0000000000000000000, 0.0000000000000000000, 1.000000000000000000 ) ) ;
#34 = CARTESIAN_POINT ( 'NONE',  ( 0.0000000000000000000, 0.0000000000000000000, 2.000000000000000000 ) ) ;
#35 = LOCAL_TIME ( 10, 31, 28.00000000000000000, #29 ) ;
#36 = ADVANCED_BREP_SHAPE_REPRESENTATION ( 'Web Model 47230_49635', ( #5, #174 ), #6 ) ;
#37 = DATE_AND_TIME ( #24, #155 ) ;
#38 = DATE_AND_TIME ( #73, #35 ) ;
#39 = VERTEX_POINT ( 'NONE', #164 ) ;
#40 = CC_DESIGN_PERSON_AND_ORGANIZATION_ASSIGNMENT ( #52, #21, ( #148 ) ) ;
#41 = CALENDAR_DATE ( 2019, 7, 1 ) ;
#42 =( NAMED_UNIT ( * ) PLANE_ANGLE_UNIT ( ) SI_UNIT ( $, .RADIAN. ) );
#43 =( LENGTH_UNIT ( ) NAMED_UNIT ( * ) SI_UNIT ( .MILLI., .METRE. ) );
#44 = PERSON_AND_ORGANIZATION_ROLE ( 'classification_officer' ) ;
#45 = ORIENTED_EDGE ( 'NONE', *, *, #71, .T. ) ;
#46 = APPROVAL_STATUS ( 'not_yet_approved' ) ;
#47 = CYLINDRICAL_SURFACE ( 'NONE', #50, 25.00000000000000000 ) ;
#48 = APPROVAL ( #158, 'UNSPECIFIED' ) ;
#49 = ADVANCED_FACE ( 'NONE', ( #27 ), #22, .F. ) ;
#50 = AXIS2_PLACEMENT_3D ( 'NONE', #34, #8, #99 ) ;
#51 = PRODUCT_DEFINITION ( 'UNKNOWN', '', #148, #68 ) ;
#52 = PERSON_AND_ORGANIZATION ( #121, #149 ) ;
#53 = LINE ( 'NONE', #85, #11 ) ;
#54 = EDGE_CURVE ( 'NONE', #142, #7, #53, .T. ) ;
#55 = CIRCLE ( 'NONE', #117, 25.00000000000000000 ) ;
#56 = SHAPE_DEFINITION_REPRESENTATION ( #81, #36 ) ;
#57 = FACE_OUTER_BOUND ( 'NONE', #147, .T. ) ;
#58 = ORIENTED_EDGE ( 'NONE', *, *, #102, .F. ) ;
#59 = CARTESIAN_POINT ( 'NONE',  ( 0.0000000000000000000, 0.0000000000000000000, -2.000000000000000000 ) ) ;
#60 = MECHANICAL_CONTEXT ( 'NONE', #20, 'mechanical' ) ;
#61 = CC_DESIGN_APPROVAL ( #48, ( #148 ) ) ;
#62 = SECURITY_CLASSIFICATION_LEVEL ( 'unclassified' ) ;
#63 = DIRECTION ( 'NONE',  ( 1.000000000000000000, 0.0000000000000000000, -0.0000000000000000000 ) ) ;
#64 = ADVANCED_FACE ( 'NONE', ( #97 ), #47, .T. ) ;
#65 = APPROVAL_DATE_TIME ( #106, #48 ) ;
#66 = CC_DESIGN_APPROVAL ( #75, ( #51 ) ) ;
#67 = CYLINDRICAL_SURFACE ( 'NONE', #101, 25.00000000000000000 ) ;
#68 = DESIGN_CONTEXT ( 'detailed design', #94, 'design' ) ;
#69 = DIRECTION ( 'NONE',  ( -0.0000000000000000000, -0.0000000000000000000, -1.000000000000000000 ) ) ;
#70 = CARTESIAN_POINT ( 'NONE',  ( -25.00000000000000000, 0.0000000000000000000, -2.000000000000000000 ) ) ;
#71 = EDGE_CURVE ( 'NONE', #7, #39, #55, .T. ) ;
#72 = COORDINATED_UNIVERSAL_TIME_OFFSET ( 5, 0, .BEHIND. ) ;
#73 = CALENDAR_DATE ( 2019, 7, 1 ) ;
#74 = ORIENTED_EDGE ( 'NONE', *, *, #79, .T. ) ;
#75 = APPROVAL ( #46, 'UNSPECIFIED' ) ;
#76 = UNCERTAINTY_MEASURE_WITH_UNIT (LENGTH_MEASURE( 1.000000000000000100E-005 ), #43, 'distance_accuracy_value', 'NONE');
#77 = CC_DESIGN_SECURITY_CLASSIFICATION ( #95, ( #148 ) ) ;
#78 = ORIENTED_EDGE ( 'NONE', *, *, #15, .T. ) ;
#79 = EDGE_CURVE ( 'NONE', #169, #39, #10, .T. ) ;
#80 = PERSON_AND_ORGANIZATION_ROLE ( 'design_owner' ) ;
#81 = PRODUCT_DEFINITION_SHAPE ( 'NONE', 'NONE',  #51 ) ;
#82 = DIRECTION ( 'NONE',  ( 1.000000000000000000, 0.0000000000000000000, 0.0000000000000000000 ) ) ;
#83 = ORIENTED_EDGE ( 'NONE', *, *, #71, .F. ) ;
#84 = APPROVAL_ROLE ( '' ) ;
#85 = CARTESIAN_POINT ( 'NONE',  ( -25.00000000000000000, 0.0000000000000000000, 2.000000000000000000 ) ) ;
#86 = PERSON_AND_ORGANIZATION ( #121, #149 ) ;
#87 = AXIS2_PLACEMENT_3D ( 'NONE', #96, #2, #136 ) ;
#88 = PERSON_AND_ORGANIZATION ( #121, #149 ) ;
#89 = COORDINATED_UNIVERSAL_TIME_OFFSET ( 5, 0, .BEHIND. ) ;
#90 = CC_DESIGN_PERSON_AND_ORGANIZATION_ASSIGNMENT ( #172, #44, ( #95 ) ) ;
#91 = APPROVAL_PERSON_ORGANIZATION ( #32, #48, #3 ) ;
#92 = APPROVAL_PERSON_ORGANIZATION ( #153, #75, #84 ) ;
#93 = ORIENTED_EDGE ( 'NONE', *, *, #111, .F. ) ;
#94 = APPLICATION_CONTEXT ( 'configuration controlled 3d designs of mechanical parts and assemblies' ) ;
#95 = SECURITY_CLASSIFICATION ( '', '', #62 ) ;
#96 = CARTESIAN_POINT ( 'NONE',  ( 0.0000000000000000000, 0.0000000000000000000, 2.000000000000000000 ) ) ;
#97 = FACE_OUTER_BOUND ( 'NONE', #156, .T. ) ;
#98 = DIRECTION ( 'NONE',  ( 1.000000000000000000, 0.0000000000000000000, 0.0000000000000000000 ) ) ;
#99 = DIRECTION ( 'NONE',  ( -1.000000000000000000, 0.0000000000000000000, 0.0000000000000000000 ) ) ;
#100 = DATE_AND_TIME ( #41, #9 ) ;
#101 = AXIS2_PLACEMENT_3D ( 'NONE', #150, #12, #17 ) ;
#102 = EDGE_CURVE ( 'NONE', #169, #142, #14, .T. ) ;
#103 = VECTOR ( 'NONE', #113, 1000.000000000000000 ) ;
#104 = APPROVAL ( #140, 'UNSPECIFIED' ) ;
#105 = CALENDAR_DATE ( 2019, 7, 1 ) ;
#106 = DATE_AND_TIME ( #31, #152 ) ;
#107 = ORIENTED_EDGE ( 'NONE', *, *, #79, .F. ) ;
#108 = AXIS2_PLACEMENT_3D ( 'NONE', #23, #125, #143 ) ;
#109 = APPROVAL_DATE_TIME ( #100, #75 ) ;
#110 = CARTESIAN_POINT ( 'NONE',  ( -25.00000000000000000, 0.0000000000000000000, 2.000000000000000000 ) ) ;
#111 = EDGE_CURVE ( 'NONE', #39, #7, #167, .T. ) ;
#112 = CARTESIAN_POINT ( 'NONE',  ( 0.0000000000000000000, 0.0000000000000000000, -2.000000000000000000 ) ) ;
#113 = DIRECTION ( 'NONE',  ( -0.0000000000000000000, -0.0000000000000000000, -1.000000000000000000 ) ) ;
#114 = CC_DESIGN_PERSON_AND_ORGANIZATION_ASSIGNMENT ( #134, #80, ( #171 ) ) ;
#115 = CARTESIAN_POINT ( 'NONE',  ( 0.0000000000000000000, 0.0000000000000000000, -2.000000000000000000 ) ) ;
#116 = EDGE_LOOP ( 'NONE', ( #78, #119 ) ) ;
#117 = AXIS2_PLACEMENT_3D ( 'NONE', #115, #161, #82 ) ;
#118 = ORIENTED_EDGE ( 'NONE', *, *, #111, .T. ) ;
#119 = ORIENTED_EDGE ( 'NONE', *, *, #102, .T. ) ;
#120 = CC_DESIGN_PERSON_AND_ORGANIZATION_ASSIGNMENT ( #86, #151, ( #51 ) ) ;
#121 = PERSON ( 'UNSPECIFIED', 'UNSPECIFIED', 'UNSPECIFIED', ('UNSPECIFIED'), ('UNSPECIFIED'), ('UNSPECIFIED') ) ;
#122 = CARTESIAN_POINT ( 'NONE',  ( 0.0000000000000000000, 0.0000000000000000000, 0.0000000000000000000 ) ) ;
#123 = ADVANCED_FACE ( 'NONE', ( #57 ), #67, .T. ) ;
#124 = PERSON_AND_ORGANIZATION_ROLE ( 'creator' ) ;
#125 = DIRECTION ( 'NONE',  ( 0.0000000000000000000, 0.0000000000000000000, 1.000000000000000000 ) ) ;
#126 = ORIENTED_EDGE ( 'NONE', *, *, #54, .T. ) ;
#127 = AXIS2_PLACEMENT_3D ( 'NONE', #175, #146, #135 ) ;
#128 = ORIENTED_EDGE ( 'NONE', *, *, #15, .F. ) ;
#129 = AXIS2_PLACEMENT_3D ( 'NONE', #112, #33, #63 ) ;
#130 = EDGE_LOOP ( 'NONE', ( #83, #93 ) ) ;
#131 = CC_DESIGN_APPROVAL ( #104, ( #95 ) ) ;
#132 = FACE_OUTER_BOUND ( 'NONE', #116, .T. ) ;
#133 = PERSON_AND_ORGANIZATION ( #121, #149 ) ;
#134 = PERSON_AND_ORGANIZATION ( #121, #149 ) ;
#135 = DIRECTION ( 'NONE',  ( 1.000000000000000000, 0.0000000000000000000, 0.0000000000000000000 ) ) ;
#136 = DIRECTION ( 'NONE',  ( 1.000000000000000000, 0.0000000000000000000, -0.0000000000000000000 ) ) ;
#137 = DIRECTION ( 'NONE',  ( 1.000000000000000000, 0.0000000000000000000, 0.0000000000000000000 ) ) ;
#138 = DATE_AND_TIME ( #105, #25 ) ;
#139 = COORDINATED_UNIVERSAL_TIME_OFFSET ( 5, 0, .BEHIND. ) ;
#140 = APPROVAL_STATUS ( 'not_yet_approved' ) ;
#141 = AXIS2_PLACEMENT_3D ( 'NONE', #59, #157, #137 ) ;
#142 = VERTEX_POINT ( 'NONE', #110 ) ;
#143 = DIRECTION ( 'NONE',  ( 1.000000000000000000, 0.0000000000000000000, 0.0000000000000000000 ) ) ;
#144 = PRODUCT_RELATED_PRODUCT_CATEGORY ( 'detail', '', ( #171 ) ) ;
#145 = COORDINATED_UNIVERSAL_TIME_OFFSET ( 5, 0, .BEHIND. ) ;
#146 = DIRECTION ( 'NONE',  ( 0.0000000000000000000, 0.0000000000000000000, 1.000000000000000000 ) ) ;
#147 = EDGE_LOOP ( 'NONE', ( #107, #128, #126, #45 ) ) ;
#148 = PRODUCT_DEFINITION_FORMATION_WITH_SPECIFIED_SOURCE ( 'ANY', '', #171, .NOT_KNOWN. ) ;
#149 = ORGANIZATION ( 'UNSPECIFIED', 'UNSPECIFIED', '' ) ;
#150 = CARTESIAN_POINT ( 'NONE',  ( 0.0000000000000000000, 0.0000000000000000000, 2.000000000000000000 ) ) ;
#151 = PERSON_AND_ORGANIZATION_ROLE ( 'creator' ) ;
#152 = LOCAL_TIME ( 10, 31, 28.00000000000000000, #89 ) ;
#153 = PERSON_AND_ORGANIZATION ( #121, #149 ) ;
#154 = PLANE ( 'NONE',  #87 ) ;
#155 = LOCAL_TIME ( 10, 31, 28.00000000000000000, #145 ) ;
#156 = EDGE_LOOP ( 'NONE', ( #58, #74, #118, #170 ) ) ;
#157 = DIRECTION ( 'NONE',  ( 0.0000000000000000000, 0.0000000000000000000, 1.000000000000000000 ) ) ;
#158 = APPROVAL_STATUS ( 'not_yet_approved' ) ;
#159 = APPROVAL_ROLE ( '' ) ;
#160 = DATE_TIME_ROLE ( 'classification_date' ) ;
#161 = DIRECTION ( 'NONE',  ( 0.0000000000000000000, 0.0000000000000000000, 1.000000000000000000 ) ) ;
#162 = ADVANCED_FACE ( 'NONE', ( #132 ), #154, .T. ) ;
#163 = CLOSED_SHELL ( 'NONE', ( #64, #123, #162, #49 ) ) ;
#164 = CARTESIAN_POINT ( 'NONE',  ( 25.00000000000000000, 3.061616997868383000E-015, -2.000000000000000000 ) ) ;
#165 = CC_DESIGN_PERSON_AND_ORGANIZATION_ASSIGNMENT ( #88, #124, ( #148 ) ) ;
#166 = APPROVAL_DATE_TIME ( #138, #104 ) ;
#167 = CIRCLE ( 'NONE', #141, 25.00000000000000000 ) ;
#168 = CIRCLE ( 'NONE', #108, 25.00000000000000000 ) ;
#169 = VERTEX_POINT ( 'NONE', #30 ) ;
#170 = ORIENTED_EDGE ( 'NONE', *, *, #54, .F. ) ;
#171 = PRODUCT ( 'Web Model 47230_49635', 'Web Model 47230_49635', '', ( #60 ) ) ;
#172 = PERSON_AND_ORGANIZATION ( #121, #149 ) ;
#173 = CARTESIAN_POINT ( 'NONE',  ( 25.00000000000000000, 3.061616997868383000E-015, 2.000000000000000000 ) ) ;
#174 = AXIS2_PLACEMENT_3D ( 'NONE', #122, #19, #98 ) ;
#175 = CARTESIAN_POINT ( 'NONE',  ( 0.0000000000000000000, 0.0000000000000000000, 2.000000000000000000 ) ) ;
ENDSEC;
END-ISO-10303-21;
