ISO-10303-21;
HEADER;
FILE_DESCRIPTION (( 'STEP AP203' ),
    '1' );
FILE_NAME ('4330-E0W.STEP',
    '2015-06-17T20:46:59',
    ( 'admin' ),
    ( '' ),
    'SwSTEP 2.0',
    'SolidWorks 2014',
    '' );
FILE_SCHEMA (( 'CONFIG_CONTROL_DESIGN' ));
ENDSEC;

DATA;
#1 = CARTESIAN_POINT ( 'NONE',  ( 0.0000000000000000000, 12.45005674400257000, 1.015736565962488400 ) ) ;
#2 = CIRCLE ( 'NONE', #165, 12.44206192499530900 ) ;
#3 = ADVANCED_FACE ( 'NONE', ( #133 ), #181, .T. ) ;
#4 = DIRECTION ( 'NONE',  ( 0.0000000000000000000, 0.0000000000000000000, -1.000000000000000000 ) ) ;
#5 = VERTEX_POINT ( 'NONE', #101 ) ;
#6 = PERSON_AND_ORGANIZATION ( #249, #269 ) ;
#7 = AXIS2_PLACEMENT_3D ( 'NONE', #100, #27, #82 ) ;
#8 = DIRECTION ( 'NONE',  ( 1.000000000000000000, 0.0000000000000000000, 0.0000000000000000000 ) ) ;
#9 = APPLICATION_PROTOCOL_DEFINITION ( 'international standard', 'config_control_design', 1994, #43 ) ;
#10 = CARTESIAN_POINT ( 'NONE',  ( 0.0000000000000000000, 0.0000000000000000000, 1.100000000000000100 ) ) ;
#11 = CC_DESIGN_APPROVAL ( #72, ( #285 ) ) ;
#12 = CIRCLE ( 'NONE', #23, 919.7999999999999500 ) ;
#13 = CIRCLE ( 'NONE', #299, 919.7999999999999500 ) ;
#14 = PERSON_AND_ORGANIZATION_ROLE ( 'creator' ) ;
#15 = PRODUCT_DEFINITION ( 'UNKNOWN', '', #354, #291 ) ;
#16 = DIRECTION ( 'NONE',  ( -1.000000000000000000, 0.0000000000000000000, 0.0000000000000000000 ) ) ;
#17 = DIRECTION ( 'NONE',  ( -1.000000000000000000, 0.0000000000000000000, 0.0000000000000000000 ) ) ;
#18 = DIRECTION ( 'NONE',  ( 0.6910664282828125100, 8.463122893947404300E-017, -0.7227912504315725500 ) ) ;
#19 = VECTOR ( 'NONE', #18, 999.9999999999998900 ) ;
#20 = PERSON_AND_ORGANIZATION_ROLE ( 'creator' ) ;
#21 = CIRCLE ( 'NONE', #255, 12.44206192499530900 ) ;
#22 = EDGE_LOOP ( 'NONE', ( #356, #152, #142, #228 ) ) ;
#23 = AXIS2_PLACEMENT_3D ( 'NONE', #138, #342, #275 ) ;
#24 = CIRCLE ( 'NONE', #63, 12.69999999999999900 ) ;
#25 = DIRECTION ( 'NONE',  ( -0.0000000000000000000, -0.0000000000000000000, 1.000000000000000000 ) ) ;
#26 = ORIENTED_EDGE ( 'NONE', *, *, #113, .T. ) ;
#27 = DIRECTION ( 'NONE',  ( -0.0000000000000000000, -0.0000000000000000000, 1.000000000000000000 ) ) ;
#28 = CARTESIAN_POINT ( 'NONE',  ( 0.0000000000000000000, 0.0000000000000000000, 918.6999999999999300 ) ) ;
#29 = CARTESIAN_POINT ( 'NONE',  ( 0.0000000000000000000, 5.632150629278677900E-014, -1.099999999999989900 ) ) ;
#30 = EDGE_LOOP ( 'NONE', ( #351, #364, #288, #203, #99 ) ) ;
#31 = VERTEX_POINT ( 'NONE', #243 ) ;
#32 = LOCAL_TIME ( 16, 46, 59.00000000000000000, #248 ) ;
#33 = CALENDAR_DATE ( 2015, 17, 6 ) ;
#34 = CARTESIAN_POINT ( 'NONE',  ( 0.0000000000000000000, 0.0000000000000000000, 0.7543191520269498800 ) ) ;
#35 = CC_DESIGN_APPROVAL ( #292, ( #15 ) ) ;
#36 = CARTESIAN_POINT ( 'NONE',  ( -12.69999999999999900, 1.555301434917138400E-015, 0.7543191520269498800 ) ) ;
#37 = SPHERICAL_SURFACE ( 'NONE', #221, 919.7999999999999500 ) ;
#38 = CIRCLE ( 'NONE', #235, 12.45005674400247900 ) ;
#39 = VERTEX_POINT ( 'NONE', #120 ) ;
#40 = ADVANCED_FACE ( 'NONE', ( #324 ), #104, .T. ) ;
#41 = APPROVAL_DATE_TIME ( #158, #46 ) ;
#42 = AXIS2_PLACEMENT_3D ( 'NONE', #66, #184, #218 ) ;
#43 = APPLICATION_CONTEXT ( 'configuration controlled 3d designs of mechanical parts and assemblies' ) ;
#44 = LOCAL_TIME ( 16, 46, 59.00000000000000000, #252 ) ;
#45 = DIRECTION ( 'NONE',  ( -1.000000000000000000, 0.0000000000000000000, 0.0000000000000000000 ) ) ;
#46 = APPROVAL ( #173, 'UNSPECIFIED' ) ;
#47 = ORIENTED_EDGE ( 'NONE', *, *, #202, .F. ) ;
#48 = EDGE_CURVE ( 'NONE', #175, #167, #225, .T. ) ;
#49 = DIRECTION ( 'NONE',  ( 0.0000000000000000000, 1.000000000000000000, 0.0000000000000000000 ) ) ;
#50 = DIRECTION ( 'NONE',  ( 1.000000000000000000, 0.0000000000000000000, 0.0000000000000000000 ) ) ;
#51 = ORIENTED_EDGE ( 'NONE', *, *, #144, .T. ) ;
#52 = DIRECTION ( 'NONE',  ( -1.224646799147353500E-016, -1.000000000000000000, 0.0000000000000000000 ) ) ;
#53 = DIRECTION ( 'NONE',  ( 0.0000000000000000000, 0.0000000000000000000, -1.000000000000000000 ) ) ;
#54 = CIRCLE ( 'NONE', #201, 919.7999999999998400 ) ;
#55 = CARTESIAN_POINT ( 'NONE',  ( 0.0000000000000000000, 0.0000000000000000000, -0.7623191520271799200 ) ) ;
#56 = CC_DESIGN_APPROVAL ( #46, ( #354 ) ) ;
#57 = DIRECTION ( 'NONE',  ( -0.0000000000000000000, -0.0000000000000000000, 1.000000000000000000 ) ) ;
#58 = DIRECTION ( 'NONE',  ( -0.0000000000000000000, -0.0000000000000000000, 1.000000000000000000 ) ) ;
#59 = DIRECTION ( 'NONE',  ( 0.0000000000000000000, 0.0000000000000000000, -1.000000000000000000 ) ) ;
#60 = CARTESIAN_POINT ( 'NONE',  ( 12.69999999999999900, 0.0000000000000000000, 1.100000000000000100 ) ) ;
#61 = CALENDAR_DATE ( 2015, 17, 6 ) ;
#62 = AXIS2_PLACEMENT_3D ( 'NONE', #118, #17, #240 ) ;
#63 = AXIS2_PLACEMENT_3D ( 'NONE', #34, #270, #192 ) ;
#64 = ORIENTED_EDGE ( 'NONE', *, *, #363, .T. ) ;
#65 = CALENDAR_DATE ( 2015, 17, 6 ) ;
#66 = CARTESIAN_POINT ( 'NONE',  ( 0.0000000000000000000, 0.0000000000000000000, 1.015736565962543900 ) ) ;
#67 = DATE_AND_TIME ( #320, #253 ) ;
#68 = ORIENTED_EDGE ( 'NONE', *, *, #202, .T. ) ;
#69 = COORDINATED_UNIVERSAL_TIME_OFFSET ( 5, 0, .BEHIND. ) ;
#70 = MECHANICAL_CONTEXT ( 'NONE', #332, 'mechanical' ) ;
#71 = ADVANCED_FACE ( 'NONE', ( #154 ), #174, .T. ) ;
#72 = APPROVAL ( #196, 'UNSPECIFIED' ) ;
#73 = EDGE_LOOP ( 'NONE', ( #129, #313, #178, #136, #114 ) ) ;
#74 = LOCAL_TIME ( 16, 46, 59.00000000000000000, #223 ) ;
#75 = CARTESIAN_POINT ( 'NONE',  ( 0.0000000000000000000, 0.0000000000000000000, 1.015736565962543900 ) ) ;
#76 = EDGE_CURVE ( 'NONE', #194, #86, #2, .T. ) ;
#77 = VERTEX_POINT ( 'NONE', #176 ) ;
#78 = AXIS2_PLACEMENT_3D ( 'NONE', #338, #294, #229 ) ;
#79 = SPHERICAL_SURFACE ( 'NONE', #62, 919.7999999999999500 ) ;
#80 = EDGE_CURVE ( 'NONE', #5, #162, #238, .T. ) ;
#81 = CIRCLE ( 'NONE', #261, 12.69999999999999900 ) ;
#82 = DIRECTION ( 'NONE',  ( -1.000000000000000000, 0.0000000000000000000, 0.0000000000000000000 ) ) ;
#83 = APPROVAL_ROLE ( '' ) ;
#84 = CYLINDRICAL_SURFACE ( 'NONE', #274, 12.69999999999999900 ) ;
#85 =( LENGTH_UNIT ( ) NAMED_UNIT ( * ) SI_UNIT ( .MILLI., .METRE. ) );
#86 = VERTEX_POINT ( 'NONE', #199 ) ;
#87 = CC_DESIGN_SECURITY_CLASSIFICATION ( #285, ( #354 ) ) ;
#88 = DIRECTION ( 'NONE',  ( 0.7131805539880938800, 0.0000000000000000000, 0.7009803830445153800 ) ) ;
#89 = CARTESIAN_POINT ( 'NONE',  ( 12.69999999999999900, 0.0000000000000000000, 0.7543191520269498800 ) ) ;
#90 = CIRCLE ( 'NONE', #362, 12.69999999999999900 ) ;
#91 = DIRECTION ( 'NONE',  ( -0.0000000000000000000, -0.0000000000000000000, 1.000000000000000000 ) ) ;
#92 = DIRECTION ( 'NONE',  ( -1.000000000000000000, 0.0000000000000000000, 0.0000000000000000000 ) ) ;
#93 = EDGE_CURVE ( 'NONE', #162, #167, #24, .T. ) ;
#94 = AXIS2_PLACEMENT_3D ( 'NONE', #321, #122, #337 ) ;
#95 = PERSON_AND_ORGANIZATION ( #249, #269 ) ;
#96 = COORDINATED_UNIVERSAL_TIME_OFFSET ( 5, 0, .BEHIND. ) ;
#97 = EDGE_LOOP ( 'NONE', ( #111, #105, #68, #301 ) ) ;
#98 = PRODUCT_DEFINITION_SHAPE ( 'NONE', 'NONE',  #15 ) ;
#99 = ORIENTED_EDGE ( 'NONE', *, *, #113, .F. ) ;
#100 = CARTESIAN_POINT ( 'NONE',  ( 0.0000000000000000000, 0.0000000000000000000, 1.015736565962543900 ) ) ;
#101 = CARTESIAN_POINT ( 'NONE',  ( 12.45005674400247900, 1.539996824495847000E-015, 1.015736565962543900 ) ) ;
#102 = LINE ( 'NONE', #254, #276 ) ;
#103 = DIRECTION ( 'NONE',  ( -1.000000000000000000, 0.0000000000000000000, 0.0000000000000000000 ) ) ;
#104 = CYLINDRICAL_SURFACE ( 'NONE', #124, 12.69999999999999900 ) ;
#105 = ORIENTED_EDGE ( 'NONE', *, *, #284, .T. ) ;
#106 = DIRECTION ( 'NONE',  ( -0.0000000000000000000, -0.0000000000000000000, 1.000000000000000000 ) ) ;
#107 = CONICAL_SURFACE ( 'NONE', #119, 12.69999999999999900, 0.7940250940112388900 ) ;
#108 = EDGE_CURVE ( 'NONE', #361, #5, #160, .T. ) ;
#109 = PRODUCT_RELATED_PRODUCT_CATEGORY ( 'detail', '', ( #214 ) ) ;
#110 = CARTESIAN_POINT ( 'NONE',  ( 0.0000000000000000000, 0.0000000000000000000, 918.6999999999999300 ) ) ;
#111 = ORIENTED_EDGE ( 'NONE', *, *, #208, .F. ) ;
#112 = VECTOR ( 'NONE', #58, 1000.000000000000000 ) ;
#113 = EDGE_CURVE ( 'NONE', #232, #175, #355, .T. ) ;
#114 = ORIENTED_EDGE ( 'NONE', *, *, #357, .F. ) ;
#115 = EDGE_CURVE ( 'NONE', #135, #77, #102, .T. ) ;
#116 = ADVANCED_FACE ( 'NONE', ( #149 ), #37, .T. ) ;
#117 = DIRECTION ( 'NONE',  ( 0.0000000000000000000, 1.000000000000000000, 0.0000000000000000000 ) ) ;
#118 = CARTESIAN_POINT ( 'NONE',  ( 0.0000000000000000000, 0.0000000000000000000, -918.6999999999999300 ) ) ;
#119 = AXIS2_PLACEMENT_3D ( 'NONE', #346, #329, #367 ) ;
#120 = CARTESIAN_POINT ( 'NONE',  ( -12.69999999999999900, 1.555301434917138400E-015, -0.7623191520271799200 ) ) ;
#121 = FACE_OUTER_BOUND ( 'NONE', #197, .T. ) ;
#122 = DIRECTION ( 'NONE',  ( 0.0000000000000000000, 0.0000000000000000000, 1.000000000000000000 ) ) ;
#123 = ORIENTED_EDGE ( 'NONE', *, *, #115, .T. ) ;
#124 = AXIS2_PLACEMENT_3D ( 'NONE', #10, #237, #50 ) ;
#125 = CARTESIAN_POINT ( 'NONE',  ( 0.0000000000000000000, 0.0000000000000000000, -1.015844755897665800 ) ) ;
#126 = DIRECTION ( 'NONE',  ( -1.000000000000000000, 0.0000000000000000000, 0.0000000000000000000 ) ) ;
#127 = DIRECTION ( 'NONE',  ( 1.000000000000000000, 0.0000000000000000000, 0.0000000000000000000 ) ) ;
#128 = APPROVAL_DATE_TIME ( #183, #292 ) ;
#129 = ORIENTED_EDGE ( 'NONE', *, *, #144, .F. ) ;
#130 = VECTOR ( 'NONE', #148, 1000.000000000000000 ) ;
#131 = DIRECTION ( 'NONE',  ( 1.000000000000000000, 0.0000000000000000000, 0.0000000000000000000 ) ) ;
#132 = ORIENTED_EDGE ( 'NONE', *, *, #256, .F. ) ;
#133 = FACE_OUTER_BOUND ( 'NONE', #325, .T. ) ;
#134 = VECTOR ( 'NONE', #91, 1000.000000000000000 ) ;
#135 = VERTEX_POINT ( 'NONE', #267 ) ;
#136 = ORIENTED_EDGE ( 'NONE', *, *, #115, .F. ) ;
#137 = APPROVAL_ROLE ( '' ) ;
#138 = CARTESIAN_POINT ( 'NONE',  ( 0.0000000000000000000, 0.0000000000000000000, 918.6999999999999300 ) ) ;
#139 = DIRECTION ( 'NONE',  ( -1.000000000000000000, 1.224646799147353200E-016, 0.0000000000000000000 ) ) ;
#140 = ADVANCED_FACE ( 'NONE', ( #348 ), #79, .T. ) ;
#141 = EDGE_CURVE ( 'NONE', #86, #39, #172, .T. ) ;
#142 = ORIENTED_EDGE ( 'NONE', *, *, #357, .T. ) ;
#143 = APPROVAL_PERSON_ORGANIZATION ( #314, #46, #83 ) ;
#144 = EDGE_CURVE ( 'NONE', #86, #31, #278, .T. ) ;
#145 = CC_DESIGN_DATE_AND_TIME_ASSIGNMENT ( #207, #163, ( #15 ) ) ;
#146 = CARTESIAN_POINT ( 'NONE',  ( 0.0000000000000000000, 0.0000000000000000000, 1.015736565962543900 ) ) ;
#147 = EDGE_CURVE ( 'NONE', #167, #162, #90, .T. ) ;
#148 = DIRECTION ( 'NONE',  ( -0.7131805539880938800, 8.733942826556553200E-017, 0.7009803830445153800 ) ) ;
#149 = FACE_OUTER_BOUND ( 'NONE', #22, .T. ) ;
#150 = EDGE_LOOP ( 'NONE', ( #26, #205, #193, #262 ) ) ;
#151 = ORIENTED_EDGE ( 'NONE', *, *, #208, .T. ) ;
#152 = ORIENTED_EDGE ( 'NONE', *, *, #302, .T. ) ;
#153 = DIRECTION ( 'NONE',  ( -0.6910664282828125100, 0.0000000000000000000, -0.7227912504315725500 ) ) ;
#154 = FACE_OUTER_BOUND ( 'NONE', #150, .T. ) ;
#155 = FACE_OUTER_BOUND ( 'NONE', #350, .T. ) ;
#156 = VERTEX_POINT ( 'NONE', #29 ) ;
#157 = CALENDAR_DATE ( 2015, 17, 6 ) ;
#158 = DATE_AND_TIME ( #33, #74 ) ;
#159 = CC_DESIGN_PERSON_AND_ORGANIZATION_ASSIGNMENT ( #335, #234, ( #285 ) ) ;
#160 = CIRCLE ( 'NONE', #7, 12.45005674400247900 ) ;
#161 = ORIENTED_EDGE ( 'NONE', *, *, #93, .F. ) ;
#162 = VERTEX_POINT ( 'NONE', #89 ) ;
#163 = DATE_TIME_ROLE ( 'creation_date' ) ;
#164 = VECTOR ( 'NONE', #153, 999.9999999999998900 ) ;
#165 = AXIS2_PLACEMENT_3D ( 'NONE', #272, #53, #277 ) ;
#166 = CONICAL_SURFACE ( 'NONE', #326, 12.45005674400246000, 0.7629634446103934500 ) ;
#167 = VERTEX_POINT ( 'NONE', #36 ) ;
#168 = ADVANCED_FACE ( 'NONE', ( #366 ), #166, .T. ) ;
#169 = ORIENTED_EDGE ( 'NONE', *, *, #147, .T. ) ;
#170 = EDGE_CURVE ( 'NONE', #5, #232, #315, .T. ) ;
#171 = DIRECTION ( 'NONE',  ( -1.224646799147353500E-016, -1.000000000000000000, 0.0000000000000000000 ) ) ;
#172 = LINE ( 'NONE', #279, #130 ) ;
#173 = APPROVAL_STATUS ( 'not_yet_approved' ) ;
#174 = SPHERICAL_SURFACE ( 'NONE', #222, 919.7999999999999500 ) ;
#175 = VERTEX_POINT ( 'NONE', #341 ) ;
#176 = CARTESIAN_POINT ( 'NONE',  ( 12.69999999999999900, 0.0000000000000000000, -0.7623191520271799200 ) ) ;
#177 = CIRCLE ( 'NONE', #268, 12.44206192499530900 ) ;
#178 = ORIENTED_EDGE ( 'NONE', *, *, #219, .F. ) ;
#179 = DIRECTION ( 'NONE',  ( 0.0000000000000000000, 0.0000000000000000000, -1.000000000000000000 ) ) ;
#180 = LINE ( 'NONE', #60, #112 ) ;
#181 = SPHERICAL_SURFACE ( 'NONE', #211, 919.7999999999999500 ) ;
#182 = CARTESIAN_POINT ( 'NONE',  ( 0.0000000000000000000, 0.0000000000000000000, 1.015736565962543900 ) ) ;
#183 = DATE_AND_TIME ( #61, #44 ) ;
#184 = DIRECTION ( 'NONE',  ( 0.0000000000000000000, 0.0000000000000000000, -1.000000000000000000 ) ) ;
#185 = CARTESIAN_POINT ( 'NONE',  ( -12.45005674400246000, 0.0000000000000000000, 1.015736565962543900 ) ) ;
#186 = CARTESIAN_POINT ( 'NONE',  ( 0.0000000000000000000, 0.0000000000000000000, -918.6999999999999300 ) ) ;
#187 = AXIS2_PLACEMENT_3D ( 'NONE', #182, #231, #103 ) ;
#188 = ORIENTED_EDGE ( 'NONE', *, *, #80, .F. ) ;
#189 = CARTESIAN_POINT ( 'NONE',  ( 0.0000000000000000000, 0.0000000000000000000, 0.7543191520269498800 ) ) ;
#190 = UNCERTAINTY_MEASURE_WITH_UNIT (LENGTH_MEASURE( 1.000000000000000100E-005 ), #85, 'distance_accuracy_value', 'NONE');
#191 = DIRECTION ( 'NONE',  ( -1.000000000000000000, 0.0000000000000000000, 0.0000000000000000000 ) ) ;
#192 = DIRECTION ( 'NONE',  ( -1.000000000000000000, 0.0000000000000000000, 0.0000000000000000000 ) ) ;
#193 = ORIENTED_EDGE ( 'NONE', *, *, #230, .T. ) ;
#194 = VERTEX_POINT ( 'NONE', #280 ) ;
#195 = DIRECTION ( 'NONE',  ( 1.000000000000000000, 0.0000000000000000000, 0.0000000000000000000 ) ) ;
#196 = APPROVAL_STATUS ( 'not_yet_approved' ) ;
#197 = EDGE_LOOP ( 'NONE', ( #188, #318, #132, #250, #161 ) ) ;
#198 = ORIENTED_EDGE ( 'NONE', *, *, #170, .T. ) ;
#199 = CARTESIAN_POINT ( 'NONE',  ( -12.44206192499530900, 1.539507283020502400E-015, -1.015844755897665800 ) ) ;
#200 = CARTESIAN_POINT ( 'NONE',  ( 0.0000000000000000000, 0.0000000000000000000, -1.015844755897665800 ) ) ;
#201 = AXIS2_PLACEMENT_3D ( 'NONE', #309, #215, #220 ) ;
#202 = EDGE_CURVE ( 'NONE', #77, #162, #180, .T. ) ;
#203 = ORIENTED_EDGE ( 'NONE', *, *, #48, .F. ) ;
#204 = ORIENTED_EDGE ( 'NONE', *, *, #230, .F. ) ;
#205 = ORIENTED_EDGE ( 'NONE', *, *, #256, .T. ) ;
#206 = ORIENTED_EDGE ( 'NONE', *, *, #219, .T. ) ;
#207 = DATE_AND_TIME ( #65, #32 ) ;
#208 = EDGE_CURVE ( 'NONE', #39, #167, #283, .T. ) ;
#209 =( NAMED_UNIT ( * ) PLANE_ANGLE_UNIT ( ) SI_UNIT ( $, .RADIAN. ) );
#210 = AXIS2_PLACEMENT_3D ( 'NONE', #146, #344, #191 ) ;
#211 = AXIS2_PLACEMENT_3D ( 'NONE', #239, #245, #49 ) ;
#212 = DATE_TIME_ROLE ( 'classification_date' ) ;
#213 = PERSON_AND_ORGANIZATION ( #249, #269 ) ;
#214 = PRODUCT ( '4330-E0W', '4330-E0W', '', ( #70 ) ) ;
#215 = DIRECTION ( 'NONE',  ( 1.000000000000000000, -0.0000000000000000000, 0.0000000000000000000 ) ) ;
#216 = CONICAL_SURFACE ( 'NONE', #42, 12.45005674400246000, 0.7629634446103934500 ) ;
#217 = ORIENTED_EDGE ( 'NONE', *, *, #108, .T. ) ;
#218 = DIRECTION ( 'NONE',  ( -1.000000000000000000, 0.0000000000000000000, 0.0000000000000000000 ) ) ;
#219 = EDGE_CURVE ( 'NONE', #77, #39, #81, .T. ) ;
#220 = DIRECTION ( 'NONE',  ( 0.0000000000000000000, 0.0000000000000000000, -1.000000000000000000 ) ) ;
#221 = AXIS2_PLACEMENT_3D ( 'NONE', #28, #92, #306 ) ;
#222 = AXIS2_PLACEMENT_3D ( 'NONE', #186, #246, #117 ) ;
#223 = COORDINATED_UNIVERSAL_TIME_OFFSET ( 5, 0, .BEHIND. ) ;
#224 = EDGE_CURVE ( 'NONE', #156, #194, #13, .T. ) ;
#225 = LINE ( 'NONE', #185, #164 ) ;
#226 = DIRECTION ( 'NONE',  ( -0.0000000000000000000, -0.0000000000000000000, 1.000000000000000000 ) ) ;
#227 = SECURITY_CLASSIFICATION_LEVEL ( 'unclassified' ) ;
#228 = ORIENTED_EDGE ( 'NONE', *, *, #259, .T. ) ;
#229 = DIRECTION ( 'NONE',  ( 1.000000000000000000, 0.0000000000000000000, 0.0000000000000000000 ) ) ;
#230 = EDGE_CURVE ( 'NONE', #361, #358, #317, .T. ) ;
#231 = DIRECTION ( 'NONE',  ( -0.0000000000000000000, -0.0000000000000000000, 1.000000000000000000 ) ) ;
#232 = VERTEX_POINT ( 'NONE', #1 ) ;
#233 = ADVANCED_FACE ( 'NONE', ( #121 ), #216, .T. ) ;
#234 = PERSON_AND_ORGANIZATION_ROLE ( 'classification_officer' ) ;
#235 = AXIS2_PLACEMENT_3D ( 'NONE', #75, #25, #45 ) ;
#236 = CARTESIAN_POINT ( 'NONE',  ( -12.69999999999999900, 1.555301434917138400E-015, 1.100000000000000100 ) ) ;
#237 = DIRECTION ( 'NONE',  ( -0.0000000000000000000, -0.0000000000000000000, 1.000000000000000000 ) ) ;
#238 = LINE ( 'NONE', #289, #19 ) ;
#239 = CARTESIAN_POINT ( 'NONE',  ( 0.0000000000000000000, 0.0000000000000000000, 918.6999999999999300 ) ) ;
#240 = DIRECTION ( 'NONE',  ( 0.0000000000000000000, 1.000000000000000000, 0.0000000000000000000 ) ) ;
#241 = ORIENTED_EDGE ( 'NONE', *, *, #76, .F. ) ;
#242 = APPROVAL_DATE_TIME ( #67, #72 ) ;
#243 = CARTESIAN_POINT ( 'NONE',  ( 0.0000000000000000000, 12.44206192499616000, -1.015844755897665800 ) ) ;
#244 = CC_DESIGN_PERSON_AND_ORGANIZATION_ASSIGNMENT ( #263, #365, ( #214 ) ) ;
#245 = DIRECTION ( 'NONE',  ( -1.000000000000000000, 0.0000000000000000000, 0.0000000000000000000 ) ) ;
#246 = DIRECTION ( 'NONE',  ( -1.000000000000000000, 0.0000000000000000000, 0.0000000000000000000 ) ) ;
#247 = ORIENTED_EDGE ( 'NONE', *, *, #302, .F. ) ;
#248 = COORDINATED_UNIVERSAL_TIME_OFFSET ( 5, 0, .BEHIND. ) ;
#249 = PERSON ( 'UNSPECIFIED', 'UNSPECIFIED', 'UNSPECIFIED', ('UNSPECIFIED'), ('UNSPECIFIED'), ('UNSPECIFIED') ) ;
#250 = ORIENTED_EDGE ( 'NONE', *, *, #48, .T. ) ;
#251 = EDGE_LOOP ( 'NONE', ( #204, #217, #198, #64 ) ) ;
#252 = COORDINATED_UNIVERSAL_TIME_OFFSET ( 5, 0, .BEHIND. ) ;
#253 = LOCAL_TIME ( 16, 46, 59.00000000000000000, #96 ) ;
#254 = CARTESIAN_POINT ( 'NONE',  ( 12.69999999999999900, 0.0000000000000000000, -0.7623191520271799200 ) ) ;
#255 = AXIS2_PLACEMENT_3D ( 'NONE', #125, #303, #260 ) ;
#256 = EDGE_CURVE ( 'NONE', #175, #361, #38, .T. ) ;
#257 = AXIS2_PLACEMENT_3D ( 'NONE', #273, #179, #347 ) ;
#258 = SHAPE_DEFINITION_REPRESENTATION ( #98, #266 ) ;
#259 = EDGE_CURVE ( 'NONE', #135, #194, #177, .T. ) ;
#260 = DIRECTION ( 'NONE',  ( 1.000000000000000000, 0.0000000000000000000, 0.0000000000000000000 ) ) ;
#261 = AXIS2_PLACEMENT_3D ( 'NONE', #55, #57, #131 ) ;
#262 = ORIENTED_EDGE ( 'NONE', *, *, #363, .F. ) ;
#263 = PERSON_AND_ORGANIZATION ( #249, #269 ) ;
#264 = CARTESIAN_POINT ( 'NONE',  ( 0.0000000000000000000, 0.0000000000000000000, -918.6999999999999300 ) ) ;
#265 = ADVANCED_FACE ( 'NONE', ( #349 ), #84, .T. ) ;
#266 = ADVANCED_BREP_SHAPE_REPRESENTATION ( '4330-E0W', ( #304, #94 ), #290 ) ;
#267 = CARTESIAN_POINT ( 'NONE',  ( 12.44206192499530900, 0.0000000000000000000, -1.015844755897665800 ) ) ;
#268 = AXIS2_PLACEMENT_3D ( 'NONE', #200, #4, #8 ) ;
#269 = ORGANIZATION ( 'UNSPECIFIED', 'UNSPECIFIED', '' ) ;
#270 = DIRECTION ( 'NONE',  ( 0.0000000000000000000, 0.0000000000000000000, -1.000000000000000000 ) ) ;
#271 = APPLICATION_PROTOCOL_DEFINITION ( 'international standard', 'config_control_design', 1994, #332 ) ;
#272 = CARTESIAN_POINT ( 'NONE',  ( 0.0000000000000000000, 0.0000000000000000000, -1.015844755897665800 ) ) ;
#273 = CARTESIAN_POINT ( 'NONE',  ( 0.0000000000000000000, 0.0000000000000000000, -1.015844755897665800 ) ) ;
#274 = AXIS2_PLACEMENT_3D ( 'NONE', #307, #226, #195 ) ;
#275 = DIRECTION ( 'NONE',  ( 0.0000000000000000000, 0.0000000000000000000, -1.000000000000000000 ) ) ;
#276 = VECTOR ( 'NONE', #88, 1000.000000000000000 ) ;
#277 = DIRECTION ( 'NONE',  ( 1.000000000000000000, 0.0000000000000000000, 0.0000000000000000000 ) ) ;
#278 = CIRCLE ( 'NONE', #257, 12.44206192499530900 ) ;
#279 = CARTESIAN_POINT ( 'NONE',  ( -12.69999999999999900, 1.555301434917138400E-015, -0.7623191520271799200 ) ) ;
#280 = CARTESIAN_POINT ( 'NONE',  ( -1.523713131123970500E-015, -12.44206192499616000, -1.015844755897665800 ) ) ;
#281 = LOCAL_TIME ( 16, 46, 59.00000000000000000, #69 ) ;
#282 = ADVANCED_FACE ( 'NONE', ( #155 ), #107, .T. ) ;
#283 = LINE ( 'NONE', #236, #134 ) ;
#284 = EDGE_CURVE ( 'NONE', #39, #77, #328, .T. ) ;
#285 = SECURITY_CLASSIFICATION ( '', '', #227 ) ;
#286 = PERSON_AND_ORGANIZATION ( #249, #269 ) ;
#287 = AXIS2_PLACEMENT_3D ( 'NONE', #264, #316, #171 ) ;
#288 = ORIENTED_EDGE ( 'NONE', *, *, #147, .F. ) ;
#289 = CARTESIAN_POINT ( 'NONE',  ( 12.45005674400246000, 1.524692214074553100E-015, 1.015736565962543900 ) ) ;
#290 =( GEOMETRIC_REPRESENTATION_CONTEXT ( 3 ) GLOBAL_UNCERTAINTY_ASSIGNED_CONTEXT ( ( #190 ) ) GLOBAL_UNIT_ASSIGNED_CONTEXT ( ( #85, #209, #300 ) ) REPRESENTATION_CONTEXT ( 'NONE', 'WORKASPACE' ) );
#291 = DESIGN_CONTEXT ( 'detailed design', #43, 'design' ) ;
#292 = APPROVAL ( #353, 'UNSPECIFIED' ) ;
#293 = CC_DESIGN_PERSON_AND_ORGANIZATION_ASSIGNMENT ( #343, #340, ( #354 ) ) ;
#294 = DIRECTION ( 'NONE',  ( -0.0000000000000000000, -0.0000000000000000000, 1.000000000000000000 ) ) ;
#295 = ORIENTED_EDGE ( 'NONE', *, *, #76, .T. ) ;
#296 = ORIENTED_EDGE ( 'NONE', *, *, #284, .F. ) ;
#297 = APPROVAL_PERSON_ORGANIZATION ( #286, #292, #308 ) ;
#298 = CARTESIAN_POINT ( 'NONE',  ( 0.0000000000000000000, 5.632150629278677900E-014, 1.099999999999989900 ) ) ;
#299 = AXIS2_PLACEMENT_3D ( 'NONE', #110, #139, #52 ) ;
#300 =( NAMED_UNIT ( * ) SI_UNIT ( $, .STERADIAN. ) SOLID_ANGLE_UNIT ( ) );
#301 = ORIENTED_EDGE ( 'NONE', *, *, #93, .T. ) ;
#302 = EDGE_CURVE ( 'NONE', #156, #31, #12, .T. ) ;
#303 = DIRECTION ( 'NONE',  ( 0.0000000000000000000, 0.0000000000000000000, -1.000000000000000000 ) ) ;
#304 = MANIFOLD_SOLID_BREP ( '4330-001-1-solid1', #330 ) ;
#305 = CONICAL_SURFACE ( 'NONE', #310, 12.69999999999999900, 0.7940250940112388900 ) ;
#306 = DIRECTION ( 'NONE',  ( 0.0000000000000000000, 1.000000000000000000, 0.0000000000000000000 ) ) ;
#307 = CARTESIAN_POINT ( 'NONE',  ( 0.0000000000000000000, 0.0000000000000000000, 1.100000000000000100 ) ) ;
#308 = APPROVAL_ROLE ( '' ) ;
#309 = CARTESIAN_POINT ( 'NONE',  ( 0.0000000000000000000, 0.0000000000000000000, -918.6999999999999300 ) ) ;
#310 = AXIS2_PLACEMENT_3D ( 'NONE', #345, #106, #127 ) ;
#311 = ADVANCED_FACE ( 'NONE', ( #333 ), #305, .T. ) ;
#312 = CC_DESIGN_PERSON_AND_ORGANIZATION_ASSIGNMENT ( #6, #14, ( #354 ) ) ;
#313 = ORIENTED_EDGE ( 'NONE', *, *, #141, .T. ) ;
#314 = PERSON_AND_ORGANIZATION ( #249, #269 ) ;
#315 = CIRCLE ( 'NONE', #187, 12.45005674400247900 ) ;
#316 = DIRECTION ( 'NONE',  ( -1.000000000000000000, 1.224646799147353200E-016, 0.0000000000000000000 ) ) ;
#317 = CIRCLE ( 'NONE', #287, 919.7999999999999500 ) ;
#318 = ORIENTED_EDGE ( 'NONE', *, *, #108, .F. ) ;
#319 = ORIENTED_EDGE ( 'NONE', *, *, #141, .F. ) ;
#320 = CALENDAR_DATE ( 2015, 17, 6 ) ;
#321 = CARTESIAN_POINT ( 'NONE',  ( 0.0000000000000000000, 0.0000000000000000000, 0.0000000000000000000 ) ) ;
#322 = ORIENTED_EDGE ( 'NONE', *, *, #224, .T. ) ;
#323 = CARTESIAN_POINT ( 'NONE',  ( 0.0000000000000000000, 0.0000000000000000000, 1.015736565962543900 ) ) ;
#324 = FACE_OUTER_BOUND ( 'NONE', #331, .T. ) ;
#325 = EDGE_LOOP ( 'NONE', ( #247, #322, #295, #51 ) ) ;
#326 = AXIS2_PLACEMENT_3D ( 'NONE', #323, #59, #126 ) ;
#327 = ORIENTED_EDGE ( 'NONE', *, *, #259, .F. ) ;
#328 = CIRCLE ( 'NONE', #78, 12.69999999999999900 ) ;
#329 = DIRECTION ( 'NONE',  ( -0.0000000000000000000, -0.0000000000000000000, 1.000000000000000000 ) ) ;
#330 = CLOSED_SHELL ( 'NONE', ( #168, #311, #3, #40, #71, #140, #265, #116, #282, #233 ) ) ;
#331 = EDGE_LOOP ( 'NONE', ( #206, #151, #169, #47 ) ) ;
#332 = APPLICATION_CONTEXT ( 'configuration controlled 3d designs of mechanical parts and assemblies' ) ;
#333 = FACE_OUTER_BOUND ( 'NONE', #73, .T. ) ;
#334 = CC_DESIGN_PERSON_AND_ORGANIZATION_ASSIGNMENT ( #213, #20, ( #15 ) ) ;
#335 = PERSON_AND_ORGANIZATION ( #249, #269 ) ;
#336 = CARTESIAN_POINT ( 'NONE',  ( -1.524692214074566500E-015, -12.45005674400257000, 1.015736565962488400 ) ) ;
#337 = DIRECTION ( 'NONE',  ( 1.000000000000000000, 0.0000000000000000000, 0.0000000000000000000 ) ) ;
#338 = CARTESIAN_POINT ( 'NONE',  ( 0.0000000000000000000, 0.0000000000000000000, -0.7623191520271799200 ) ) ;
#339 = CC_DESIGN_DATE_AND_TIME_ASSIGNMENT ( #359, #212, ( #285 ) ) ;
#340 = PERSON_AND_ORGANIZATION_ROLE ( 'design_supplier' ) ;
#341 = CARTESIAN_POINT ( 'NONE',  ( -12.45005674400247900, 0.0000000000000000000, 1.015736565962543900 ) ) ;
#342 = DIRECTION ( 'NONE',  ( 1.000000000000000000, 0.0000000000000000000, 0.0000000000000000000 ) ) ;
#343 = PERSON_AND_ORGANIZATION ( #249, #269 ) ;
#344 = DIRECTION ( 'NONE',  ( -0.0000000000000000000, -0.0000000000000000000, 1.000000000000000000 ) ) ;
#345 = CARTESIAN_POINT ( 'NONE',  ( 0.0000000000000000000, 0.0000000000000000000, -0.7623191520271799200 ) ) ;
#346 = CARTESIAN_POINT ( 'NONE',  ( 0.0000000000000000000, 0.0000000000000000000, -0.7623191520271799200 ) ) ;
#347 = DIRECTION ( 'NONE',  ( 1.000000000000000000, 0.0000000000000000000, 0.0000000000000000000 ) ) ;
#348 = FACE_OUTER_BOUND ( 'NONE', #251, .T. ) ;
#349 = FACE_OUTER_BOUND ( 'NONE', #97, .T. ) ;
#350 = EDGE_LOOP ( 'NONE', ( #319, #241, #327, #123, #296 ) ) ;
#351 = ORIENTED_EDGE ( 'NONE', *, *, #170, .F. ) ;
#352 = APPROVAL_PERSON_ORGANIZATION ( #95, #72, #137 ) ;
#353 = APPROVAL_STATUS ( 'not_yet_approved' ) ;
#354 = PRODUCT_DEFINITION_FORMATION_WITH_SPECIFIED_SOURCE ( 'ANY', '', #214, .NOT_KNOWN. ) ;
#355 = CIRCLE ( 'NONE', #210, 12.45005674400247900 ) ;
#356 = ORIENTED_EDGE ( 'NONE', *, *, #224, .F. ) ;
#357 = EDGE_CURVE ( 'NONE', #31, #135, #21, .T. ) ;
#358 = VERTEX_POINT ( 'NONE', #298 ) ;
#359 = DATE_AND_TIME ( #157, #281 ) ;
#360 = DIRECTION ( 'NONE',  ( 0.0000000000000000000, 0.0000000000000000000, -1.000000000000000000 ) ) ;
#361 = VERTEX_POINT ( 'NONE', #336 ) ;
#362 = AXIS2_PLACEMENT_3D ( 'NONE', #189, #360, #16 ) ;
#363 = EDGE_CURVE ( 'NONE', #232, #358, #54, .T. ) ;
#364 = ORIENTED_EDGE ( 'NONE', *, *, #80, .T. ) ;
#365 = PERSON_AND_ORGANIZATION_ROLE ( 'design_owner' ) ;
#366 = FACE_OUTER_BOUND ( 'NONE', #30, .T. ) ;
#367 = DIRECTION ( 'NONE',  ( 1.000000000000000000, 0.0000000000000000000, 0.0000000000000000000 ) ) ;
ENDSEC;
END-ISO-10303-21;
