ISO-10303-21;
HEADER;
FILE_DESCRIPTION (( 'STEP AP203' ),
    '1' );
FILE_NAME ('Web Model 19922_19922.step',
    '2022-01-24T16:32:13',
    ( '' ),
    ( '' ),
    'SwSTEP 2.0',
    'SolidWorks 2021',
    '' );
FILE_SCHEMA (( 'CONFIG_CONTROL_DESIGN' ));
ENDSEC;

DATA;
#1 = ORIENTED_EDGE ( 'NONE', *, *, #89, .F. ) ;
#2 = CYLINDRICAL_SURFACE ( 'NONE', #13, 20.00000000000000000 ) ;
#3 = FACE_OUTER_BOUND ( 'NONE', #39, .T. ) ;
#4 = LOCAL_TIME ( 11, 32, 13.00000000000000000, #59 ) ;
#5 = PERSON_AND_ORGANIZATION ( #10, #77 ) ;
#6 = CALENDAR_DATE ( 2022, 24, 1 ) ;
#7 = DATE_TIME_ROLE ( 'classification_date' ) ;
#8 = EDGE_CURVE ( 'NONE', #14, #24, #87, .T. ) ;
#9 = DIRECTION ( 'NONE',  ( 0.000000000000000000, 0.000000000000000000, 1.000000000000000000 ) ) ;
#10 = PERSON ( 'UNSPECIFIED', 'UNSPECIFIED', 'UNSPECIFIED', ('UNSPECIFIED'), ('UNSPECIFIED'), ('UNSPECIFIED') ) ;
#11 = APPROVAL_DATE_TIME ( #37, #123 ) ;
#12 = APPLICATION_CONTEXT ( 'configuration controlled 3d designs of mechanical parts and assemblies' ) ;
#13 = AXIS2_PLACEMENT_3D ( 'NONE', #55, #114, #175 ) ;
#14 = VERTEX_POINT ( 'NONE', #78 ) ;
#15 = CC_DESIGN_DATE_AND_TIME_ASSIGNMENT ( #125, #7, ( #111 ) ) ;
#16 = DIRECTION ( 'NONE',  ( 0.000000000000000000, 0.000000000000000000, 1.000000000000000000 ) ) ;
#17 = VECTOR ( 'NONE', #43, 1000.000000000000000 ) ;
#18 = FACE_OUTER_BOUND ( 'NONE', #56, .T. ) ;
#19 = ORIENTED_EDGE ( 'NONE', *, *, #156, .F. ) ;
#20 = DIRECTION ( 'NONE',  ( 1.000000000000000000, 0.000000000000000000, 0.000000000000000000 ) ) ;
#21 = LOCAL_TIME ( 11, 32, 13.00000000000000000, #136 ) ;
#22 = APPROVAL_STATUS ( 'not_yet_approved' ) ;
#23 = CALENDAR_DATE ( 2022, 24, 1 ) ;
#24 = VERTEX_POINT ( 'NONE', #28 ) ;
#25 = AXIS2_PLACEMENT_3D ( 'NONE', #149, #134, #168 ) ;
#26 = DIRECTION ( 'NONE',  ( -0.000000000000000000, -0.000000000000000000, -1.000000000000000000 ) ) ;
#27 = CARTESIAN_POINT ( 'NONE',  ( 0.000000000000000000, 0.000000000000000000, 3.000000000000000000 ) ) ;
#28 = CARTESIAN_POINT ( 'NONE',  ( 20.00000000000000000, 2.449293598294706513E-15, 0.000000000000000000 ) ) ;
#29 = CC_DESIGN_APPROVAL ( #123, ( #111 ) ) ;
#30 = DIRECTION ( 'NONE',  ( 0.000000000000000000, 0.000000000000000000, 1.000000000000000000 ) ) ;
#31 = PERSON_AND_ORGANIZATION ( #10, #77 ) ;
#32 = PERSON_AND_ORGANIZATION_ROLE ( 'design_supplier' ) ;
#33 = EDGE_CURVE ( 'NONE', #132, #14, #85, .T. ) ;
#34 = CARTESIAN_POINT ( 'NONE',  ( 0.000000000000000000, 0.000000000000000000, 0.000000000000000000 ) ) ;
#35 = UNCERTAINTY_MEASURE_WITH_UNIT (LENGTH_MEASURE( 1.000000000000000082E-05 ), #106, 'distance_accuracy_value', 'NONE');
#36 = PERSON_AND_ORGANIZATION_ROLE ( 'classification_officer' ) ;
#37 = DATE_AND_TIME ( #154, #160 ) ;
#38 = CIRCLE ( 'NONE', #25, 20.00000000000000000 ) ;
#39 = EDGE_LOOP ( 'NONE', ( #42, #102 ) ) ;
#40 = DIRECTION ( 'NONE',  ( 0.000000000000000000, 0.000000000000000000, 1.000000000000000000 ) ) ;
#41 = APPROVAL_PERSON_ORGANIZATION ( #60, #123, #170 ) ;
#42 = ORIENTED_EDGE ( 'NONE', *, *, #33, .T. ) ;
#43 = DIRECTION ( 'NONE',  ( -0.000000000000000000, -0.000000000000000000, -1.000000000000000000 ) ) ;
#44 = ORIENTED_EDGE ( 'NONE', *, *, #57, .T. ) ;
#45 = PERSON_AND_ORGANIZATION ( #10, #77 ) ;
#46 = DATE_AND_TIME ( #49, #4 ) ;
#47 = CC_DESIGN_PERSON_AND_ORGANIZATION_ASSIGNMENT ( #151, #36, ( #111 ) ) ;
#48 = PRODUCT_DEFINITION_FORMATION_WITH_SPECIFIED_SOURCE ( 'ANY', '', #71, .NOT_KNOWN. ) ;
#49 = CALENDAR_DATE ( 2022, 24, 1 ) ;
#50 = CALENDAR_DATE ( 2022, 24, 1 ) ;
#51 = PRODUCT_DEFINITION ( 'UNKNOWN', '', #48, #126 ) ;
#52 = EDGE_LOOP ( 'NONE', ( #19, #1 ) ) ;
#53 = CARTESIAN_POINT ( 'NONE',  ( 0.000000000000000000, 0.000000000000000000, 3.000000000000000000 ) ) ;
#54 = DIRECTION ( 'NONE',  ( -0.000000000000000000, -0.000000000000000000, -1.000000000000000000 ) ) ;
#55 = CARTESIAN_POINT ( 'NONE',  ( 0.000000000000000000, 0.000000000000000000, 3.000000000000000000 ) ) ;
#56 = EDGE_LOOP ( 'NONE', ( #163, #63, #158, #161 ) ) ;
#57 = EDGE_CURVE ( 'NONE', #132, #133, #73, .T. ) ;
#58 = MECHANICAL_CONTEXT ( 'NONE', #135, 'mechanical' ) ;
#59 = COORDINATED_UNIVERSAL_TIME_OFFSET ( 5, 0, .BEHIND. ) ;
#60 = PERSON_AND_ORGANIZATION ( #10, #77 ) ;
#61 = CC_DESIGN_APPROVAL ( #112, ( #51 ) ) ;
#62 = PLANE ( 'NONE',  #155 ) ;
#63 = ORIENTED_EDGE ( 'NONE', *, *, #8, .T. ) ;
#64 = CC_DESIGN_SECURITY_CLASSIFICATION ( #111, ( #48 ) ) ;
#65 = CARTESIAN_POINT ( 'NONE',  ( -20.00000000000000000, 0.000000000000000000, 3.000000000000000000 ) ) ;
#66 = ORIENTED_EDGE ( 'NONE', *, *, #33, .F. ) ;
#67 = APPLICATION_PROTOCOL_DEFINITION ( 'international standard', 'config_control_design', 1994, #12 ) ;
#68 = APPROVAL_PERSON_ORGANIZATION ( #150, #112, #105 ) ;
#69 = PERSON_AND_ORGANIZATION_ROLE ( 'design_owner' ) ;
#70 = AXIS2_PLACEMENT_3D ( 'NONE', #53, #164, #90 ) ;
#71 = PRODUCT ( 'Web Model 19922_19922', 'Web Model 19922_19922', '', ( #58 ) ) ;
#72 = CC_DESIGN_PERSON_AND_ORGANIZATION_ASSIGNMENT ( #95, #93, ( #48 ) ) ;
#73 = LINE ( 'NONE', #120, #94 ) ;
#74 = DIRECTION ( 'NONE',  ( -1.000000000000000000, 0.000000000000000000, 0.000000000000000000 ) ) ;
#75 = PRODUCT_RELATED_PRODUCT_CATEGORY ( 'detail', '', ( #71 ) ) ;
#76 = CYLINDRICAL_SURFACE ( 'NONE', #165, 20.00000000000000000 ) ;
#77 = ORGANIZATION ( 'UNSPECIFIED', 'UNSPECIFIED', '' ) ;
#78 = CARTESIAN_POINT ( 'NONE',  ( 20.00000000000000000, 2.449293598294706513E-15, 3.000000000000000000 ) ) ;
#79 = DATE_AND_TIME ( #6, #138 ) ;
#80 = PERSON_AND_ORGANIZATION_ROLE ( 'creator' ) ;
#81 = COORDINATED_UNIVERSAL_TIME_OFFSET ( 5, 0, .BEHIND. ) ;
#82 = AXIS2_PLACEMENT_3D ( 'NONE', #173, #30, #88 ) ;
#83 = CARTESIAN_POINT ( 'NONE',  ( 20.00000000000000000, 2.449293598294706513E-15, 3.000000000000000000 ) ) ;
#84 = CARTESIAN_POINT ( 'NONE',  ( 0.000000000000000000, 0.000000000000000000, 3.000000000000000000 ) ) ;
#85 = CIRCLE ( 'NONE', #169, 20.00000000000000000 ) ;
#86 = ADVANCED_FACE ( 'NONE', ( #3 ), #62, .T. ) ;
#87 = LINE ( 'NONE', #83, #17 ) ;
#88 = DIRECTION ( 'NONE',  ( 1.000000000000000000, 0.000000000000000000, 0.000000000000000000 ) ) ;
#89 = EDGE_CURVE ( 'NONE', #24, #133, #144, .T. ) ;
#90 = DIRECTION ( 'NONE',  ( 1.000000000000000000, 0.000000000000000000, 0.000000000000000000 ) ) ;
#91 = CC_DESIGN_APPROVAL ( #98, ( #48 ) ) ;
#92 = APPROVAL_STATUS ( 'not_yet_approved' ) ;
#93 = PERSON_AND_ORGANIZATION_ROLE ( 'creator' ) ;
#94 = VECTOR ( 'NONE', #54, 1000.000000000000000 ) ;
#95 = PERSON_AND_ORGANIZATION ( #10, #77 ) ;
#96 = COORDINATED_UNIVERSAL_TIME_OFFSET ( 5, 0, .BEHIND. ) ;
#97 = CLOSED_SHELL ( 'NONE', ( #129, #137, #86, #118 ) ) ;
#98 = APPROVAL ( #92, 'UNSPECIFIED' ) ;
#99 = PLANE ( 'NONE',  #128 ) ;
#100 = ORIENTED_EDGE ( 'NONE', *, *, #8, .F. ) ;
#101 = EDGE_LOOP ( 'NONE', ( #100, #66, #44, #147 ) ) ;
#102 = ORIENTED_EDGE ( 'NONE', *, *, #148, .T. ) ;
#103 =( NAMED_UNIT ( * ) PLANE_ANGLE_UNIT ( ) SI_UNIT ( $, .RADIAN. ) );
#104 = CIRCLE ( 'NONE', #70, 20.00000000000000000 ) ;
#105 = APPROVAL_ROLE ( '' ) ;
#106 =( LENGTH_UNIT ( ) NAMED_UNIT ( * ) SI_UNIT ( .MILLI., .METRE. ) );
#107 = CC_DESIGN_PERSON_AND_ORGANIZATION_ASSIGNMENT ( #124, #32, ( #48 ) ) ;
#108 = APPROVAL_DATE_TIME ( #79, #112 ) ;
#109 = AXIS2_PLACEMENT_3D ( 'NONE', #34, #9, #20 ) ;
#110 = APPROVAL_STATUS ( 'not_yet_approved' ) ;
#111 = SECURITY_CLASSIFICATION ( '', '', #153 ) ;
#112 = APPROVAL ( #22, 'UNSPECIFIED' ) ;
#113 = CARTESIAN_POINT ( 'NONE',  ( 0.000000000000000000, 0.000000000000000000, 3.000000000000000000 ) ) ;
#114 = DIRECTION ( 'NONE',  ( -0.000000000000000000, -0.000000000000000000, -1.000000000000000000 ) ) ;
#115 = ADVANCED_BREP_SHAPE_REPRESENTATION ( 'Web Model 19922_19922', ( #139, #109 ), #116 ) ;
#116 =( GEOMETRIC_REPRESENTATION_CONTEXT ( 3 ) GLOBAL_UNCERTAINTY_ASSIGNED_CONTEXT ( ( #35 ) ) GLOBAL_UNIT_ASSIGNED_CONTEXT ( ( #106, #103, #152 ) ) REPRESENTATION_CONTEXT ( 'NONE', 'WORKASPACE' ) );
#117 = DIRECTION ( 'NONE',  ( 1.000000000000000000, 0.000000000000000000, -0.000000000000000000 ) ) ;
#118 = ADVANCED_FACE ( 'NONE', ( #146 ), #99, .F. ) ;
#119 = FACE_OUTER_BOUND ( 'NONE', #101, .T. ) ;
#120 = CARTESIAN_POINT ( 'NONE',  ( -20.00000000000000000, 0.000000000000000000, 3.000000000000000000 ) ) ;
#121 = APPLICATION_PROTOCOL_DEFINITION ( 'international standard', 'config_control_design', 1994, #135 ) ;
#122 = LOCAL_TIME ( 11, 32, 13.00000000000000000, #81 ) ;
#123 = APPROVAL ( #110, 'UNSPECIFIED' ) ;
#124 = PERSON_AND_ORGANIZATION ( #10, #77 ) ;
#125 = DATE_AND_TIME ( #23, #122 ) ;
#126 = DESIGN_CONTEXT ( 'detailed design', #12, 'design' ) ;
#127 = DATE_AND_TIME ( #50, #21 ) ;
#128 = AXIS2_PLACEMENT_3D ( 'NONE', #159, #40, #145 ) ;
#129 = ADVANCED_FACE ( 'NONE', ( #18 ), #76, .T. ) ;
#130 = DIRECTION ( 'NONE',  ( 0.000000000000000000, 0.000000000000000000, 1.000000000000000000 ) ) ;
#131 = CARTESIAN_POINT ( 'NONE',  ( -20.00000000000000000, 0.000000000000000000, 0.000000000000000000 ) ) ;
#132 = VERTEX_POINT ( 'NONE', #65 ) ;
#133 = VERTEX_POINT ( 'NONE', #131 ) ;
#134 = DIRECTION ( 'NONE',  ( 0.000000000000000000, 0.000000000000000000, 1.000000000000000000 ) ) ;
#135 = APPLICATION_CONTEXT ( 'configuration controlled 3d designs of mechanical parts and assemblies' ) ;
#136 = COORDINATED_UNIVERSAL_TIME_OFFSET ( 5, 0, .BEHIND. ) ;
#137 = ADVANCED_FACE ( 'NONE', ( #119 ), #2, .T. ) ;
#138 = LOCAL_TIME ( 11, 32, 13.00000000000000000, #167 ) ;
#139 = MANIFOLD_SOLID_BREP ( 'Boss-Extrude1', #97 ) ;
#140 = APPROVAL_ROLE ( '' ) ;
#141 = APPROVAL_DATE_TIME ( #46, #98 ) ;
#142 = APPROVAL_PERSON_ORGANIZATION ( #45, #98, #140 ) ;
#143 = DIRECTION ( 'NONE',  ( 1.000000000000000000, 0.000000000000000000, 0.000000000000000000 ) ) ;
#144 = CIRCLE ( 'NONE', #82, 20.00000000000000000 ) ;
#145 = DIRECTION ( 'NONE',  ( 1.000000000000000000, 0.000000000000000000, -0.000000000000000000 ) ) ;
#146 = FACE_OUTER_BOUND ( 'NONE', #52, .T. ) ;
#147 = ORIENTED_EDGE ( 'NONE', *, *, #156, .T. ) ;
#148 = EDGE_CURVE ( 'NONE', #14, #132, #104, .T. ) ;
#149 = CARTESIAN_POINT ( 'NONE',  ( 0.000000000000000000, 0.000000000000000000, 0.000000000000000000 ) ) ;
#150 = PERSON_AND_ORGANIZATION ( #10, #77 ) ;
#151 = PERSON_AND_ORGANIZATION ( #10, #77 ) ;
#152 =( NAMED_UNIT ( * ) SI_UNIT ( $, .STERADIAN. ) SOLID_ANGLE_UNIT ( ) );
#153 = SECURITY_CLASSIFICATION_LEVEL ( 'unclassified' ) ;
#154 = CALENDAR_DATE ( 2022, 24, 1 ) ;
#155 = AXIS2_PLACEMENT_3D ( 'NONE', #113, #130, #117 ) ;
#156 = EDGE_CURVE ( 'NONE', #133, #24, #38, .T. ) ;
#157 = SHAPE_DEFINITION_REPRESENTATION ( #171, #115 ) ;
#158 = ORIENTED_EDGE ( 'NONE', *, *, #89, .T. ) ;
#159 = CARTESIAN_POINT ( 'NONE',  ( 0.000000000000000000, 0.000000000000000000, 0.000000000000000000 ) ) ;
#160 = LOCAL_TIME ( 11, 32, 13.00000000000000000, #96 ) ;
#161 = ORIENTED_EDGE ( 'NONE', *, *, #57, .F. ) ;
#162 = CC_DESIGN_DATE_AND_TIME_ASSIGNMENT ( #127, #166, ( #51 ) ) ;
#163 = ORIENTED_EDGE ( 'NONE', *, *, #148, .F. ) ;
#164 = DIRECTION ( 'NONE',  ( 0.000000000000000000, 0.000000000000000000, 1.000000000000000000 ) ) ;
#165 = AXIS2_PLACEMENT_3D ( 'NONE', #27, #26, #74 ) ;
#166 = DATE_TIME_ROLE ( 'creation_date' ) ;
#167 = COORDINATED_UNIVERSAL_TIME_OFFSET ( 5, 0, .BEHIND. ) ;
#168 = DIRECTION ( 'NONE',  ( 1.000000000000000000, 0.000000000000000000, 0.000000000000000000 ) ) ;
#169 = AXIS2_PLACEMENT_3D ( 'NONE', #84, #16, #143 ) ;
#170 = APPROVAL_ROLE ( '' ) ;
#171 = PRODUCT_DEFINITION_SHAPE ( 'NONE', 'NONE',  #51 ) ;
#172 = CC_DESIGN_PERSON_AND_ORGANIZATION_ASSIGNMENT ( #5, #69, ( #71 ) ) ;
#173 = CARTESIAN_POINT ( 'NONE',  ( 0.000000000000000000, 0.000000000000000000, 0.000000000000000000 ) ) ;
#174 = CC_DESIGN_PERSON_AND_ORGANIZATION_ASSIGNMENT ( #31, #80, ( #51 ) ) ;
#175 = DIRECTION ( 'NONE',  ( -1.000000000000000000, 0.000000000000000000, 0.000000000000000000 ) ) ;
ENDSEC;
END-ISO-10303-21;
