ISO-10303-21;
HEADER;
FILE_DESCRIPTION (( 'STEP AP203' ),
    '1' );
FILE_NAME ('Web Model 68537.STEP',
    '2017-02-01T13:29:55',
    ( '' ),
    ( '' ),
    'SwSTEP 2.0',
    'SolidWorks 2016',
    '' );
FILE_SCHEMA (( 'CONFIG_CONTROL_DESIGN' ));
ENDSEC;

DATA;
#1 = DIRECTION ( 'NONE',  ( 0.7071067811865474600, 0.0000000000000000000, 0.7071067811865474600 ) ) ;
#2 = ORIENTED_EDGE ( 'NONE', *, *, #141, .F. ) ;
#3 = DIRECTION ( 'NONE',  ( -1.000000000000000000, 0.0000000000000000000, -0.0000000000000000000 ) ) ;
#4 = LINE ( 'NONE', #116, #231 ) ;
#5 = AXIS2_PLACEMENT_3D ( 'NONE', #271, #167, #22 ) ;
#6 = EDGE_LOOP ( 'NONE', ( #144, #2, #117, #25 ) ) ;
#7 = PRODUCT_DEFINITION ( 'UNKNOWN', '', #285, #252 ) ;
#8 = FACE_OUTER_BOUND ( 'NONE', #170, .T. ) ;
#9 = EDGE_LOOP ( 'NONE', ( #264, #65, #125 ) ) ;
#10 = VECTOR ( 'NONE', #305, 1000.000000000000000 ) ;
#11 = ORIENTED_EDGE ( 'NONE', *, *, #141, .T. ) ;
#12 = ORIENTED_EDGE ( 'NONE', *, *, #120, .F. ) ;
#13 = DIRECTION ( 'NONE',  ( -0.7071067811865475700, 0.0000000000000000000, 0.7071067811865475700 ) ) ;
#14 = APPROVAL_PERSON_ORGANIZATION ( #232, #88, #201 ) ;
#15 = CC_DESIGN_APPROVAL ( #309, ( #7 ) ) ;
#16 = APPLICATION_PROTOCOL_DEFINITION ( 'international standard', 'config_control_design', 1994, #100 ) ;
#17 = ORIENTED_EDGE ( 'NONE', *, *, #133, .T. ) ;
#18 = VERTEX_POINT ( 'NONE', #316 ) ;
#19 = APPROVAL_STATUS ( 'not_yet_approved' ) ;
#20 = APPROVAL_STATUS ( 'not_yet_approved' ) ;
#21 = VERTEX_POINT ( 'NONE', #37 ) ;
#22 = DIRECTION ( 'NONE',  ( 0.0000000000000000000, 0.0000000000000000000, -1.000000000000000000 ) ) ;
#23 = VECTOR ( 'NONE', #172, 1000.000000000000000 ) ;
#24 = DIRECTION ( 'NONE',  ( 1.000000000000000000, 0.0000000000000000000, -0.0000000000000000000 ) ) ;
#25 = ORIENTED_EDGE ( 'NONE', *, *, #265, .T. ) ;
#26 = ORIENTED_EDGE ( 'NONE', *, *, #269, .T. ) ;
#27 = CARTESIAN_POINT ( 'NONE',  ( -1.734723475976807100E-015, 15.00000000000000000, -15.00000000000000000 ) ) ;
#28 = ADVANCED_FACE ( 'NONE', ( #166 ), #292, .F. ) ;
#29 = APPROVAL_PERSON_ORGANIZATION ( #77, #309, #276 ) ;
#30 = LINE ( 'NONE', #102, #211 ) ;
#31 = LINE ( 'NONE', #95, #97 ) ;
#32 = PERSON_AND_ORGANIZATION ( #226, #229 ) ;
#33 = APPROVAL ( #19, 'UNSPECIFIED' ) ;
#34 = DIRECTION ( 'NONE',  ( -1.000000000000000000, -0.0000000000000000000, -0.0000000000000000000 ) ) ;
#35 = EDGE_LOOP ( 'NONE', ( #220, #159, #139 ) ) ;
#36 = PLANE ( 'NONE',  #189 ) ;
#37 = CARTESIAN_POINT ( 'NONE',  ( -1.734723475976807100E-015, 15.00000000000000000, -15.00000000000000000 ) ) ;
#38 = EDGE_CURVE ( 'NONE', #154, #204, #142, .T. ) ;
#39 = AXIS2_PLACEMENT_3D ( 'NONE', #230, #279, #313 ) ;
#40 = CALENDAR_DATE ( 2017, 1, 2 ) ;
#41 = CARTESIAN_POINT ( 'NONE',  ( 0.0000000000000000000, 15.00000000000000000, 0.0000000000000000000 ) ) ;
#42 = VERTEX_POINT ( 'NONE', #41 ) ;
#43 = PERSON_AND_ORGANIZATION_ROLE ( 'design_owner' ) ;
#44 = PRODUCT_DEFINITION_SHAPE ( 'NONE', 'NONE',  #7 ) ;
#45 = VECTOR ( 'NONE', #79, 1000.000000000000000 ) ;
#46 = DIRECTION ( 'NONE',  ( -0.7071067811865474600, 0.0000000000000000000, -0.7071067811865474600 ) ) ;
#47 = CARTESIAN_POINT ( 'NONE',  ( 0.0000000000000000000, 0.0000000000000000000, -15.00000000000000000 ) ) ;
#48 = CC_DESIGN_PERSON_AND_ORGANIZATION_ASSIGNMENT ( #273, #298, ( #183 ) ) ;
#49 = VECTOR ( 'NONE', #165, 1000.000000000000000 ) ;
#50 = PERSON_AND_ORGANIZATION ( #226, #229 ) ;
#51 = PLANE ( 'NONE',  #70 ) ;
#52 = APPROVAL_DATE_TIME ( #164, #88 ) ;
#53 = SHAPE_DEFINITION_REPRESENTATION ( #44, #319 ) ;
#54 = EDGE_LOOP ( 'NONE', ( #288, #12, #235 ) ) ;
#55 = PLANE ( 'NONE',  #129 ) ;
#56 = ORIENTED_EDGE ( 'NONE', *, *, #302, .F. ) ;
#57 = EDGE_CURVE ( 'NONE', #18, #42, #212, .T. ) ;
#58 = ADVANCED_FACE ( 'NONE', ( #191 ), #179, .F. ) ;
#59 = DIRECTION ( 'NONE',  ( 0.0000000000000000000, 0.0000000000000000000, 1.000000000000000000 ) ) ;
#60 = UNCERTAINTY_MEASURE_WITH_UNIT (LENGTH_MEASURE( 1.000000000000000100E-005 ), #320, 'distance_accuracy_value', 'NONE');
#61 = ORIENTED_EDGE ( 'NONE', *, *, #157, .F. ) ;
#62 = FACE_OUTER_BOUND ( 'NONE', #186, .T. ) ;
#63 = DATE_AND_TIME ( #299, #261 ) ;
#64 = AXIS2_PLACEMENT_3D ( 'NONE', #318, #296, #123 ) ;
#65 = ORIENTED_EDGE ( 'NONE', *, *, #151, .F. ) ;
#66 = DIRECTION ( 'NONE',  ( 0.7071067811865475700, 0.0000000000000000000, -0.7071067811865475700 ) ) ;
#67 = COORDINATED_UNIVERSAL_TIME_OFFSET ( 5, 0, .BEHIND. ) ;
#68 = PERSON_AND_ORGANIZATION ( #226, #229 ) ;
#69 = DIRECTION ( 'NONE',  ( -0.7071067811865474600, 0.0000000000000000000, -0.7071067811865474600 ) ) ;
#70 = AXIS2_PLACEMENT_3D ( 'NONE', #106, #59, #24 ) ;
#71 = CARTESIAN_POINT ( 'NONE',  ( 15.00000000000000000, 0.0000000000000000000, 0.0000000000000000000 ) ) ;
#72 = EDGE_LOOP ( 'NONE', ( #17, #87, #150, #11 ) ) ;
#73 = VECTOR ( 'NONE', #178, 1000.000000000000000 ) ;
#74 = CARTESIAN_POINT ( 'NONE',  ( 0.0000000000000000000, 0.0000000000000000000, 0.0000000000000000000 ) ) ;
#75 = COORDINATED_UNIVERSAL_TIME_OFFSET ( 5, 0, .BEHIND. ) ;
#76 = CARTESIAN_POINT ( 'NONE',  ( 15.00000000000000000, 15.00000000000000000, 0.0000000000000000000 ) ) ;
#77 = PERSON_AND_ORGANIZATION ( #226, #229 ) ;
#78 = VECTOR ( 'NONE', #84, 1000.000000000000000 ) ;
#79 = DIRECTION ( 'NONE',  ( -1.156482317317871500E-016, 0.0000000000000000000, -1.000000000000000000 ) ) ;
#80 = CARTESIAN_POINT ( 'NONE',  ( 0.0000000000000000000, 15.00000000000000000, -15.00000000000000000 ) ) ;
#81 = ORIENTED_EDGE ( 'NONE', *, *, #274, .T. ) ;
#82 = EDGE_CURVE ( 'NONE', #18, #315, #317, .T. ) ;
#83 = PRODUCT_RELATED_PRODUCT_CATEGORY ( 'detail', '', ( #297 ) ) ;
#84 = DIRECTION ( 'NONE',  ( -0.0000000000000000000, -1.000000000000000000, -0.0000000000000000000 ) ) ;
#85 = CARTESIAN_POINT ( 'NONE',  ( 15.00000000000000000, 15.00000000000000000, 0.0000000000000000000 ) ) ;
#86 = MANIFOLD_SOLID_BREP ( 'Extrude1', #155 ) ;
#87 = ORIENTED_EDGE ( 'NONE', *, *, #223, .F. ) ;
#88 = APPROVAL ( #20, 'UNSPECIFIED' ) ;
#89 = ORIENTED_EDGE ( 'NONE', *, *, #223, .T. ) ;
#90 = LINE ( 'NONE', #27, #78 ) ;
#91 = CC_DESIGN_DATE_AND_TIME_ASSIGNMENT ( #63, #294, ( #7 ) ) ;
#92 = ORIENTED_EDGE ( 'NONE', *, *, #280, .F. ) ;
#93 = CARTESIAN_POINT ( 'NONE',  ( 0.0000000000000000000, 15.00000000000000000, 0.0000000000000000000 ) ) ;
#94 = ORIENTED_EDGE ( 'NONE', *, *, #265, .F. ) ;
#95 = CARTESIAN_POINT ( 'NONE',  ( 14.99999999999999800, 15.00000000000000000, -15.00000000000000000 ) ) ;
#96 = CARTESIAN_POINT ( 'NONE',  ( 0.0000000000000000000, 15.00000000000000000, 0.0000000000000000000 ) ) ;
#97 = VECTOR ( 'NONE', #268, 1000.000000000000000 ) ;
#98 = AXIS2_PLACEMENT_3D ( 'NONE', #115, #136, #312 ) ;
#99 = DIRECTION ( 'NONE',  ( -1.156482317317871500E-016, 0.0000000000000000000, -1.000000000000000000 ) ) ;
#100 = APPLICATION_CONTEXT ( 'configuration controlled 3d designs of mechanical parts and assemblies' ) ;
#101 = EDGE_CURVE ( 'NONE', #114, #177, #198, .T. ) ;
#102 = CARTESIAN_POINT ( 'NONE',  ( 15.00000000000000000, 15.00000000000000000, 0.0000000000000000000 ) ) ;
#103 = APPLICATION_CONTEXT ( 'configuration controlled 3d designs of mechanical parts and assemblies' ) ;
#104 =( NAMED_UNIT ( * ) SI_UNIT ( $, .STERADIAN. ) SOLID_ANGLE_UNIT ( ) );
#105 = LINE ( 'NONE', #301, #260 ) ;
#106 = CARTESIAN_POINT ( 'NONE',  ( -1.734723475976807100E-015, 15.00000000000000000, -15.00000000000000000 ) ) ;
#107 = CALENDAR_DATE ( 2017, 1, 2 ) ;
#108 = VERTEX_POINT ( 'NONE', #254 ) ;
#109 = CARTESIAN_POINT ( 'NONE',  ( -1.734723475976807100E-015, 0.0000000000000000000, -15.00000000000000000 ) ) ;
#110 = FACE_OUTER_BOUND ( 'NONE', #54, .T. ) ;
#111 = ADVANCED_FACE ( 'NONE', ( #245 ), #290, .T. ) ;
#112 = FACE_OUTER_BOUND ( 'NONE', #6, .T. ) ;
#113 = CC_DESIGN_DATE_AND_TIME_ASSIGNMENT ( #182, #176, ( #183 ) ) ;
#114 = VERTEX_POINT ( 'NONE', #181 ) ;
#115 = CARTESIAN_POINT ( 'NONE',  ( 15.00000000000000000, 15.00000000000000000, 0.0000000000000000000 ) ) ;
#116 = CARTESIAN_POINT ( 'NONE',  ( -1.734723475976807100E-015, 15.00000000000000000, -15.00000000000000000 ) ) ;
#117 = ORIENTED_EDGE ( 'NONE', *, *, #101, .F. ) ;
#118 = DIRECTION ( 'NONE',  ( 0.0000000000000000000, -0.0000000000000000000, -1.000000000000000000 ) ) ;
#119 = ORIENTED_EDGE ( 'NONE', *, *, #280, .T. ) ;
#120 = EDGE_CURVE ( 'NONE', #293, #315, #105, .T. ) ;
#121 = LINE ( 'NONE', #314, #291 ) ;
#122 = AXIS2_PLACEMENT_3D ( 'NONE', #258, #256, #3 ) ;
#123 = DIRECTION ( 'NONE',  ( 1.000000000000000000, 0.0000000000000000000, 0.0000000000000000000 ) ) ;
#124 = DIRECTION ( 'NONE',  ( 0.7071067811865474600, 0.0000000000000000000, 0.7071067811865474600 ) ) ;
#125 = ORIENTED_EDGE ( 'NONE', *, *, #133, .F. ) ;
#126 = SECURITY_CLASSIFICATION_LEVEL ( 'unclassified' ) ;
#127 = APPROVAL_DATE_TIME ( #135, #309 ) ;
#128 = DIRECTION ( 'NONE',  ( 1.000000000000000000, -0.0000000000000000000, 0.0000000000000000000 ) ) ;
#129 = AXIS2_PLACEMENT_3D ( 'NONE', #306, #185, #307 ) ;
#130 = VECTOR ( 'NONE', #99, 1000.000000000000000 ) ;
#131 = ADVANCED_FACE ( 'NONE', ( #110 ), #36, .T. ) ;
#132 = FACE_OUTER_BOUND ( 'NONE', #72, .T. ) ;
#133 = EDGE_CURVE ( 'NONE', #204, #108, #121, .T. ) ;
#134 = CC_DESIGN_PERSON_AND_ORGANIZATION_ASSIGNMENT ( #262, #175, ( #285 ) ) ;
#135 = DATE_AND_TIME ( #248, #308 ) ;
#136 = DIRECTION ( 'NONE',  ( -1.000000000000000000, 0.0000000000000000000, 1.156482317317871500E-016 ) ) ;
#137 = VECTOR ( 'NONE', #257, 1000.000000000000100 ) ;
#138 = DIRECTION ( 'NONE',  ( -0.7071067811865474600, 0.0000000000000000000, -0.7071067811865474600 ) ) ;
#139 = ORIENTED_EDGE ( 'NONE', *, *, #302, .T. ) ;
#140 = CARTESIAN_POINT ( 'NONE',  ( 15.00000000000000000, 15.00000000000000000, 0.0000000000000000000 ) ) ;
#141 = EDGE_CURVE ( 'NONE', #177, #204, #31, .T. ) ;
#142 = LINE ( 'NONE', #71, #45 ) ;
#143 = APPROVAL_STATUS ( 'not_yet_approved' ) ;
#144 = ORIENTED_EDGE ( 'NONE', *, *, #38, .T. ) ;
#145 = PERSON_AND_ORGANIZATION_ROLE ( 'creator' ) ;
#146 = PERSON_AND_ORGANIZATION_ROLE ( 'creator' ) ;
#147 = VECTOR ( 'NONE', #250, 1000.000000000000000 ) ;
#148 = APPROVAL_ROLE ( '' ) ;
#149 = CC_DESIGN_APPROVAL ( #33, ( #285 ) ) ;
#150 = ORIENTED_EDGE ( 'NONE', *, *, #237, .F. ) ;
#151 = EDGE_CURVE ( 'NONE', #108, #154, #180, .T. ) ;
#152 = CARTESIAN_POINT ( 'NONE',  ( 14.99999999999999800, 15.00000000000000000, -15.00000000000000000 ) ) ;
#153 = CARTESIAN_POINT ( 'NONE',  ( 14.99999999999999800, 0.0000000000000000000, -15.00000000000000000 ) ) ;
#154 = VERTEX_POINT ( 'NONE', #281 ) ;
#155 = CLOSED_SHELL ( 'NONE', ( #28, #161, #58, #236, #131 ) ) ;
#156 = CARTESIAN_POINT ( 'NONE',  ( 0.0000000000000000000, 0.0000000000000000000, 0.0000000000000000000 ) ) ;
#157 = EDGE_CURVE ( 'NONE', #233, #293, #202, .T. ) ;
#158 = CC_DESIGN_APPROVAL ( #88, ( #183 ) ) ;
#159 = ORIENTED_EDGE ( 'NONE', *, *, #237, .T. ) ;
#160 = ORIENTED_EDGE ( 'NONE', *, *, #244, .T. ) ;
#161 = ADVANCED_FACE ( 'NONE', ( #267 ), #207, .F. ) ;
#162 = LINE ( 'NONE', #74, #23 ) ;
#163 = CC_DESIGN_PERSON_AND_ORGANIZATION_ASSIGNMENT ( #50, #145, ( #7 ) ) ;
#164 = DATE_AND_TIME ( #107, #213 ) ;
#165 = DIRECTION ( 'NONE',  ( 1.000000000000000000, 0.0000000000000000000, 0.0000000000000000000 ) ) ;
#166 = FACE_OUTER_BOUND ( 'NONE', #215, .T. ) ;
#167 = DIRECTION ( 'NONE',  ( 0.0000000000000000000, -1.000000000000000000, 0.0000000000000000000 ) ) ;
#168 = CALENDAR_DATE ( 2017, 1, 2 ) ;
#169 = ORIENTED_EDGE ( 'NONE', *, *, #244, .F. ) ;
#170 = EDGE_LOOP ( 'NONE', ( #282, #160, #81 ) ) ;
#171 = CARTESIAN_POINT ( 'NONE',  ( 15.00000000000000000, 0.0000000000000000000, 0.0000000000000000000 ) ) ;
#172 = DIRECTION ( 'NONE',  ( 1.000000000000000000, 0.0000000000000000000, 0.0000000000000000000 ) ) ;
#173 = PERSON_AND_ORGANIZATION ( #226, #229 ) ;
#174 = AXIS2_PLACEMENT_3D ( 'NONE', #140, #13, #1 ) ;
#175 = PERSON_AND_ORGANIZATION_ROLE ( 'design_supplier' ) ;
#176 = DATE_TIME_ROLE ( 'classification_date' ) ;
#177 = VERTEX_POINT ( 'NONE', #152 ) ;
#178 = DIRECTION ( 'NONE',  ( -0.0000000000000000000, -1.000000000000000000, -0.0000000000000000000 ) ) ;
#179 = PLANE ( 'NONE',  #174 ) ;
#180 = LINE ( 'NONE', #109, #137 ) ;
#181 = CARTESIAN_POINT ( 'NONE',  ( 15.00000000000000000, 15.00000000000000000, 0.0000000000000000000 ) ) ;
#182 = DATE_AND_TIME ( #168, #188 ) ;
#183 = SECURITY_CLASSIFICATION ( '', '', #126 ) ;
#184 = ORIENTED_EDGE ( 'NONE', *, *, #151, .T. ) ;
#185 = DIRECTION ( 'NONE',  ( 0.0000000000000000000, -1.000000000000000000, 0.0000000000000000000 ) ) ;
#186 = EDGE_LOOP ( 'NONE', ( #184, #94, #56, #89 ) ) ;
#187 = LINE ( 'NONE', #93, #49 ) ;
#188 = LOCAL_TIME ( 8, 29, 55.00000000000000000, #190 ) ;
#189 = AXIS2_PLACEMENT_3D ( 'NONE', #219, #247, #118 ) ;
#190 = COORDINATED_UNIVERSAL_TIME_OFFSET ( 5, 0, .BEHIND. ) ;
#191 = FACE_OUTER_BOUND ( 'NONE', #228, .T. ) ;
#192 = CARTESIAN_POINT ( 'NONE',  ( -1.734723475976807100E-015, 15.00000000000000000, -15.00000000000000000 ) ) ;
#193 = PLANE ( 'NONE',  #238 ) ;
#194 = DIRECTION ( 'NONE',  ( 0.0000000000000000000, 0.0000000000000000000, -1.000000000000000000 ) ) ;
#195 = CLOSED_SHELL ( 'NONE', ( #259, #234, #263, #209, #111 ) ) ;
#196 = CARTESIAN_POINT ( 'NONE',  ( 0.0000000000000000000, 15.00000000000000000, 0.0000000000000000000 ) ) ;
#197 = MANIFOLD_SOLID_BREP ( 'Extrude2', #195 ) ;
#198 = LINE ( 'NONE', #277, #130 ) ;
#199 = DIRECTION ( 'NONE',  ( -0.0000000000000000000, -1.000000000000000000, -0.0000000000000000000 ) ) ;
#200 = CARTESIAN_POINT ( 'NONE',  ( 0.0000000000000000000, 0.0000000000000000000, 0.0000000000000000000 ) ) ;
#201 = APPROVAL_ROLE ( '' ) ;
#202 = LINE ( 'NONE', #85, #10 ) ;
#203 = VECTOR ( 'NONE', #214, 1000.000000000000000 ) ;
#204 = VERTEX_POINT ( 'NONE', #153 ) ;
#205 = ORIENTED_EDGE ( 'NONE', *, *, #120, .T. ) ;
#206 = PLANE ( 'NONE',  #39 ) ;
#207 = PLANE ( 'NONE',  #122 ) ;
#208 = CARTESIAN_POINT ( 'NONE',  ( 15.00000000000000000, 15.00000000000000000, 0.0000000000000000000 ) ) ;
#209 = ADVANCED_FACE ( 'NONE', ( #210 ), #55, .F. ) ;
#210 = FACE_OUTER_BOUND ( 'NONE', #35, .T. ) ;
#211 = VECTOR ( 'NONE', #46, 1000.000000000000100 ) ;
#212 = LINE ( 'NONE', #96, #147 ) ;
#213 = LOCAL_TIME ( 8, 29, 55.00000000000000000, #75 ) ;
#214 = DIRECTION ( 'NONE',  ( -0.0000000000000000000, -0.0000000000000000000, 1.000000000000000000 ) ) ;
#215 = EDGE_LOOP ( 'NONE', ( #243, #92, #217, #216 ) ) ;
#216 = ORIENTED_EDGE ( 'NONE', *, *, #82, .T. ) ;
#217 = ORIENTED_EDGE ( 'NONE', *, *, #57, .F. ) ;
#218 = LINE ( 'NONE', #156, #203 ) ;
#219 = CARTESIAN_POINT ( 'NONE',  ( 0.0000000000000000000, 0.0000000000000000000, 0.0000000000000000000 ) ) ;
#220 = ORIENTED_EDGE ( 'NONE', *, *, #101, .T. ) ;
#221 = DIRECTION ( 'NONE',  ( -1.000000000000000000, -0.0000000000000000000, -0.0000000000000000000 ) ) ;
#222 = COORDINATED_UNIVERSAL_TIME_OFFSET ( 5, 0, .BEHIND. ) ;
#223 = EDGE_CURVE ( 'NONE', #21, #108, #90, .T. ) ;
#224 = VECTOR ( 'NONE', #124, 1000.000000000000100 ) ;
#225 =( NAMED_UNIT ( * ) PLANE_ANGLE_UNIT ( ) SI_UNIT ( $, .RADIAN. ) );
#226 = PERSON ( 'UNSPECIFIED', 'UNSPECIFIED', 'UNSPECIFIED', ('UNSPECIFIED'), ('UNSPECIFIED'), ('UNSPECIFIED') ) ;
#227 = APPLICATION_PROTOCOL_DEFINITION ( 'international standard', 'config_control_design', 1994, #103 ) ;
#228 = EDGE_LOOP ( 'NONE', ( #205, #284, #295, #251 ) ) ;
#229 = ORGANIZATION ( 'UNSPECIFIED', 'UNSPECIFIED', '' ) ;
#230 = CARTESIAN_POINT ( 'NONE',  ( 0.0000000000000000000, 15.00000000000000000, 0.0000000000000000000 ) ) ;
#231 = VECTOR ( 'NONE', #34, 1000.000000000000000 ) ;
#232 = PERSON_AND_ORGANIZATION ( #226, #229 ) ;
#233 = VERTEX_POINT ( 'NONE', #208 ) ;
#234 = ADVANCED_FACE ( 'NONE', ( #132 ), #51, .F. ) ;
#235 = ORIENTED_EDGE ( 'NONE', *, *, #269, .F. ) ;
#236 = ADVANCED_FACE ( 'NONE', ( #8 ), #206, .F. ) ;
#237 = EDGE_CURVE ( 'NONE', #177, #21, #4, .T. ) ;
#238 = AXIS2_PLACEMENT_3D ( 'NONE', #192, #66, #69 ) ;
#239 = VECTOR ( 'NONE', #199, 1000.000000000000000 ) ;
#240 = EDGE_CURVE ( 'NONE', #315, #300, #218, .T. ) ;
#241 = DATE_AND_TIME ( #40, #286 ) ;
#242 = EDGE_LOOP ( 'NONE', ( #26, #61, #169, #119 ) ) ;
#243 = ORIENTED_EDGE ( 'NONE', *, *, #240, .T. ) ;
#244 = EDGE_CURVE ( 'NONE', #42, #233, #187, .T. ) ;
#245 = FACE_OUTER_BOUND ( 'NONE', #9, .T. ) ;
#246 = LINE ( 'NONE', #253, #73 ) ;
#247 = DIRECTION ( 'NONE',  ( 0.0000000000000000000, -1.000000000000000000, 0.0000000000000000000 ) ) ;
#248 = CALENDAR_DATE ( 2017, 1, 2 ) ;
#249 = COORDINATED_UNIVERSAL_TIME_OFFSET ( 5, 0, .BEHIND. ) ;
#250 = DIRECTION ( 'NONE',  ( -0.0000000000000000000, -0.0000000000000000000, 1.000000000000000000 ) ) ;
#251 = ORIENTED_EDGE ( 'NONE', *, *, #157, .T. ) ;
#252 = DESIGN_CONTEXT ( 'detailed design', #103, 'design' ) ;
#253 = CARTESIAN_POINT ( 'NONE',  ( 0.0000000000000000000, 15.00000000000000000, 0.0000000000000000000 ) ) ;
#254 = CARTESIAN_POINT ( 'NONE',  ( -1.734723475976807100E-015, 0.0000000000000000000, -15.00000000000000000 ) ) ;
#255 = CC_DESIGN_PERSON_AND_ORGANIZATION_ASSIGNMENT ( #173, #43, ( #297 ) ) ;
#256 = DIRECTION ( 'NONE',  ( 0.0000000000000000000, 0.0000000000000000000, -1.000000000000000000 ) ) ;
#257 = DIRECTION ( 'NONE',  ( 0.7071067811865474600, 0.0000000000000000000, 0.7071067811865474600 ) ) ;
#258 = CARTESIAN_POINT ( 'NONE',  ( 0.0000000000000000000, 15.00000000000000000, 0.0000000000000000000 ) ) ;
#259 = ADVANCED_FACE ( 'NONE', ( #112 ), #289, .F. ) ;
#260 = VECTOR ( 'NONE', #138, 1000.000000000000100 ) ;
#261 = LOCAL_TIME ( 8, 29, 55.00000000000000000, #67 ) ;
#262 = PERSON_AND_ORGANIZATION ( #226, #229 ) ;
#263 = ADVANCED_FACE ( 'NONE', ( #62 ), #193, .F. ) ;
#264 = ORIENTED_EDGE ( 'NONE', *, *, #38, .F. ) ;
#265 = EDGE_CURVE ( 'NONE', #114, #154, #303, .T. ) ;
#266 = AXIS2_PLACEMENT_3D ( 'NONE', #196, #128, #194 ) ;
#267 = FACE_OUTER_BOUND ( 'NONE', #242, .T. ) ;
#268 = DIRECTION ( 'NONE',  ( -0.0000000000000000000, -1.000000000000000000, -0.0000000000000000000 ) ) ;
#269 = EDGE_CURVE ( 'NONE', #300, #293, #162, .T. ) ;
#270 = CC_DESIGN_PERSON_AND_ORGANIZATION_ASSIGNMENT ( #68, #146, ( #285 ) ) ;
#271 = CARTESIAN_POINT ( 'NONE',  ( 14.99999999999999800, 0.0000000000000000000, -15.00000000000000000 ) ) ;
#272 = CARTESIAN_POINT ( 'NONE',  ( -1.734723475976807100E-015, 15.00000000000000000, -15.00000000000000000 ) ) ;
#273 = PERSON_AND_ORGANIZATION ( #226, #229 ) ;
#274 = EDGE_CURVE ( 'NONE', #233, #18, #30, .T. ) ;
#275 = MECHANICAL_CONTEXT ( 'NONE', #100, 'mechanical' ) ;
#276 = APPROVAL_ROLE ( '' ) ;
#277 = CARTESIAN_POINT ( 'NONE',  ( 15.00000000000000000, 15.00000000000000000, 0.0000000000000000000 ) ) ;
#278 = DIRECTION ( 'NONE',  ( -0.0000000000000000000, -1.000000000000000000, -0.0000000000000000000 ) ) ;
#279 = DIRECTION ( 'NONE',  ( 0.0000000000000000000, -1.000000000000000000, 0.0000000000000000000 ) ) ;
#280 = EDGE_CURVE ( 'NONE', #42, #300, #246, .T. ) ;
#281 = CARTESIAN_POINT ( 'NONE',  ( 15.00000000000000000, 0.0000000000000000000, 0.0000000000000000000 ) ) ;
#282 = ORIENTED_EDGE ( 'NONE', *, *, #57, .T. ) ;
#283 = VECTOR ( 'NONE', #278, 1000.000000000000000 ) ;
#284 = ORIENTED_EDGE ( 'NONE', *, *, #82, .F. ) ;
#285 = PRODUCT_DEFINITION_FORMATION_WITH_SPECIFIED_SOURCE ( 'ANY', '', #297, .NOT_KNOWN. ) ;
#286 = LOCAL_TIME ( 8, 29, 55.00000000000000000, #249 ) ;
#287 = LINE ( 'NONE', #272, #224 ) ;
#288 = ORIENTED_EDGE ( 'NONE', *, *, #240, .F. ) ;
#289 = PLANE ( 'NONE',  #98 ) ;
#290 = PLANE ( 'NONE',  #5 ) ;
#291 = VECTOR ( 'NONE', #221, 1000.000000000000000 ) ;
#292 = PLANE ( 'NONE',  #266 ) ;
#293 = VERTEX_POINT ( 'NONE', #171 ) ;
#294 = DATE_TIME_ROLE ( 'creation_date' ) ;
#295 = ORIENTED_EDGE ( 'NONE', *, *, #274, .F. ) ;
#296 = DIRECTION ( 'NONE',  ( 0.0000000000000000000, 0.0000000000000000000, 1.000000000000000000 ) ) ;
#297 = PRODUCT ( 'Web Model 68537', 'Web Model 68537', '', ( #275 ) ) ;
#298 = PERSON_AND_ORGANIZATION_ROLE ( 'classification_officer' ) ;
#299 = CALENDAR_DATE ( 2017, 1, 2 ) ;
#300 = VERTEX_POINT ( 'NONE', #200 ) ;
#301 = CARTESIAN_POINT ( 'NONE',  ( 15.00000000000000000, 0.0000000000000000000, 0.0000000000000000000 ) ) ;
#302 = EDGE_CURVE ( 'NONE', #21, #114, #287, .T. ) ;
#303 = LINE ( 'NONE', #76, #239 ) ;
#304 = CC_DESIGN_SECURITY_CLASSIFICATION ( #183, ( #285 ) ) ;
#305 = DIRECTION ( 'NONE',  ( -0.0000000000000000000, -1.000000000000000000, -0.0000000000000000000 ) ) ;
#306 = CARTESIAN_POINT ( 'NONE',  ( 14.99999999999999800, 15.00000000000000000, -15.00000000000000000 ) ) ;
#307 = DIRECTION ( 'NONE',  ( 0.0000000000000000000, 0.0000000000000000000, -1.000000000000000000 ) ) ;
#308 = LOCAL_TIME ( 8, 29, 55.00000000000000000, #222 ) ;
#309 = APPROVAL ( #143, 'UNSPECIFIED' ) ;
#310 = APPROVAL_PERSON_ORGANIZATION ( #32, #33, #148 ) ;
#311 = APPROVAL_DATE_TIME ( #241, #33 ) ;
#312 = DIRECTION ( 'NONE',  ( 1.156482317317871500E-016, 0.0000000000000000000, 1.000000000000000000 ) ) ;
#313 = DIRECTION ( 'NONE',  ( 0.0000000000000000000, -0.0000000000000000000, -1.000000000000000000 ) ) ;
#314 = CARTESIAN_POINT ( 'NONE',  ( -1.734723475976807100E-015, 0.0000000000000000000, -15.00000000000000000 ) ) ;
#315 = VERTEX_POINT ( 'NONE', #47 ) ;
#316 = CARTESIAN_POINT ( 'NONE',  ( 0.0000000000000000000, 15.00000000000000000, -15.00000000000000000 ) ) ;
#317 = LINE ( 'NONE', #80, #283 ) ;
#318 = CARTESIAN_POINT ( 'NONE',  ( 0.0000000000000000000, 0.0000000000000000000, 0.0000000000000000000 ) ) ;
#319 = ADVANCED_BREP_SHAPE_REPRESENTATION ( 'Web Model 68537', ( #86, #197, #64 ), #321 ) ;
#320 =( LENGTH_UNIT ( ) NAMED_UNIT ( * ) SI_UNIT ( .MILLI., .METRE. ) );
#321 =( GEOMETRIC_REPRESENTATION_CONTEXT ( 3 ) GLOBAL_UNCERTAINTY_ASSIGNED_CONTEXT ( ( #60 ) ) GLOBAL_UNIT_ASSIGNED_CONTEXT ( ( #320, #225, #104 ) ) REPRESENTATION_CONTEXT ( 'NONE', 'WORKASPACE' ) );
ENDSEC;
END-ISO-10303-21;
