ISO-10303-21;
HEADER;
FILE_DESCRIPTION (( 'STEP AP203' ),
    '1' );
FILE_NAME ('20226-E0W.STEP',
    '2009-09-14T20:11:26',
    ( 'Admin' ),
    ( 'Thorlabs, Inc.' ),
    'SwSTEP 2.0',
    'SolidWorks 2007',
    '' );
FILE_SCHEMA (( 'CONFIG_CONTROL_DESIGN' ));
ENDSEC;

DATA;
#1 = ORIENTED_EDGE ( 'NONE', *, *, #40, .F. ) ;
#2 = VERTEX_POINT ( 'NONE', #140 ) ;
#3 = EDGE_CURVE ( 'NONE', #2, #38, #147, .T. ) ;
#4 = ADVANCED_FACE ( 'NONE', ( #112 ), #107, .T. ) ;
#5 = EDGE_CURVE ( 'NONE', #15, #2, #92, .T. ) ;
#6 = ORIENTED_EDGE ( 'NONE', *, *, #21, .F. ) ;
#7 = ORIENTED_EDGE ( 'NONE', *, *, #5, .F. ) ;
#8 = ORIENTED_EDGE ( 'NONE', *, *, #3, .F. ) ;
#9 = EDGE_LOOP ( 'NONE', ( #6, #19, #22 ) ) ;
#10 = ORIENTED_EDGE ( 'NONE', *, *, #12, .F. ) ;
#11 = EDGE_LOOP ( 'NONE', ( #1, #17, #10 ) ) ;
#12 = EDGE_CURVE ( 'NONE', #15, #13, #110, .T. ) ;
#13 = VERTEX_POINT ( 'NONE', #111 ) ;
#14 = ADVANCED_FACE ( 'NONE', ( #138 ), #57, .T. ) ;
#15 = VERTEX_POINT ( 'NONE', #58 ) ;
#16 = ORIENTED_EDGE ( 'NONE', *, *, #37, .T. ) ;
#17 = ORIENTED_EDGE ( 'NONE', *, *, #20, .T. ) ;
#18 = ORIENTED_EDGE ( 'NONE', *, *, #21, .T. ) ;
#19 = ORIENTED_EDGE ( 'NONE', *, *, #33, .T. ) ;
#20 = EDGE_CURVE ( 'NONE', #41, #13, #75, .T. ) ;
#21 = EDGE_CURVE ( 'NONE', #34, #2, #156, .T. ) ;
#22 = ORIENTED_EDGE ( 'NONE', *, *, #23, .T. ) ;
#23 = EDGE_CURVE ( 'NONE', #38, #2, #131, .T. ) ;
#24 = PERSON ( 'UNSPECIFIED', 'UNSPECIFIED', 'UNSPECIFIED', ('UNSPECIFIED'), ('UNSPECIFIED'), ('UNSPECIFIED') ) ;
#25 = ORGANIZATION ( 'UNSPECIFIED', 'UNSPECIFIED', '' ) ;
#26 = MECHANICAL_CONTEXT ( 'NONE', #28, 'mechanical' ) ;
#27 = APPLICATION_PROTOCOL_DEFINITION ( 'international standard', 'config_control_design', 1994, #28 ) ;
#28 = APPLICATION_CONTEXT ( 'configuration controlled 3d designs of mechanical parts and assemblies' ) ;
#29 = PRODUCT ( '20226-E0W', '20226-E0W', '', ( #26 ) ) ;
#30 = ADVANCED_FACE ( 'NONE', ( #132 ), #70, .F. ) ;
#31 = EDGE_LOOP ( 'NONE', ( #32, #18, #46 ) ) ;
#32 = ORIENTED_EDGE ( 'NONE', *, *, #33, .F. ) ;
#33 = EDGE_CURVE ( 'NONE', #34, #38, #108, .T. ) ;
#34 = VERTEX_POINT ( 'NONE', #97 ) ;
#35 = ADVANCED_FACE ( 'NONE', ( #96 ), #89, .T. ) ;
#36 = EDGE_LOOP ( 'NONE', ( #52, #16, #8, #7 ) ) ;
#37 = EDGE_CURVE ( 'NONE', #13, #38, #88, .T. ) ;
#38 = VERTEX_POINT ( 'NONE', #153 ) ;
#39 = EDGE_LOOP ( 'NONE', ( #55, #54, #53, #56 ) ) ;
#40 = EDGE_CURVE ( 'NONE', #41, #15, #146, .T. ) ;
#41 = VERTEX_POINT ( 'NONE', #142 ) ;
#42 = EDGE_LOOP ( 'NONE', ( #43, #44, #45 ) ) ;
#43 = ORIENTED_EDGE ( 'NONE', *, *, #20, .F. ) ;
#44 = ORIENTED_EDGE ( 'NONE', *, *, #40, .T. ) ;
#45 = ORIENTED_EDGE ( 'NONE', *, *, #50, .F. ) ;
#46 = ORIENTED_EDGE ( 'NONE', *, *, #3, .T. ) ;
#47 = ADVANCED_FACE ( 'NONE', ( #141 ), #66, .F. ) ;
#48 = MANIFOLD_SOLID_BREP ( 'NONE', #49 ) ;
#49 = CLOSED_SHELL ( 'NONE', ( #35, #14, #30, #47, #4, #51 ) ) ;
#50 = EDGE_CURVE ( 'NONE', #13, #15, #83, .T. ) ;
#51 = ADVANCED_FACE ( 'NONE', ( #78 ), #77, .T. ) ;
#52 = ORIENTED_EDGE ( 'NONE', *, *, #12, .T. ) ;
#53 = ORIENTED_EDGE ( 'NONE', *, *, #5, .T. ) ;
#54 = ORIENTED_EDGE ( 'NONE', *, *, #50, .T. ) ;
#55 = ORIENTED_EDGE ( 'NONE', *, *, #37, .F. ) ;
#56 = ORIENTED_EDGE ( 'NONE', *, *, #23, .F. ) ;
#57 = SPHERICAL_SURFACE ( 'NONE', #86, 23.00000000000000000 ) ;
#58 = CARTESIAN_POINT ( 'NONE',  ( 0.0000000000000000000, -12.69999999999999900, 1.824234043981445500 ) ) ;
#59 = AXIS2_PLACEMENT_3D ( 'NONE', #115, #114, #113 ) ;
#60 = DIRECTION ( 'NONE',  ( 1.000000000000000000, 0.0000000000000000000, 0.0000000000000000000 ) ) ;
#61 = CARTESIAN_POINT ( 'NONE',  ( 0.0000000000000000000, 0.0000000000000000000, 20.99999999999999600 ) ) ;
#62 = DIRECTION ( 'NONE',  ( 0.0000000000000000000, 1.000000000000000000, 2.229578402386487900E-016 ) ) ;
#63 = DIRECTION ( 'NONE',  ( -1.000000000000000000, 0.0000000000000000000, 0.0000000000000000000 ) ) ;
#64 = CARTESIAN_POINT ( 'NONE',  ( 0.0000000000000000000, 0.0000000000000000000, 17.56100000000000000 ) ) ;
#65 = AXIS2_PLACEMENT_3D ( 'NONE', #64, #63, #62 ) ;
#66 = SPHERICAL_SURFACE ( 'NONE', #65, 15.56100000000000000 ) ;
#67 = DIRECTION ( 'NONE',  ( -1.000000000000000000, 0.0000000000000000000, 0.0000000000000000000 ) ) ;
#68 = CARTESIAN_POINT ( 'NONE',  ( 0.0000000000000000000, 0.0000000000000000000, 17.56100000000000000 ) ) ;
#69 = AXIS2_PLACEMENT_3D ( 'NONE', #68, #67, #109 ) ;
#70 = SPHERICAL_SURFACE ( 'NONE', #69, 15.56100000000000000 ) ;
#71 = DIRECTION ( 'NONE',  ( 1.224606353822377300E-016, 1.000000000000000000, 0.0000000000000000000 ) ) ;
#72 = DIRECTION ( 'NONE',  ( 1.000000000000000000, -1.224606353822377300E-016, -2.249491082733206200E-032 ) ) ;
#73 = CARTESIAN_POINT ( 'NONE',  ( 0.0000000000000000000, 0.0000000000000000000, 20.99999999999999600 ) ) ;
#74 = AXIS2_PLACEMENT_3D ( 'NONE', #73, #72, #71 ) ;
#75 = CIRCLE ( 'NONE', #74, 23.00000000000000000 ) ;
#76 = AXIS2_PLACEMENT_3D ( 'NONE', #129, #128, #127 ) ;
#77 = CYLINDRICAL_SURFACE ( 'NONE', #76, 12.70000000000000300 ) ;
#78 = FACE_OUTER_BOUND ( 'NONE', #39, .T. ) ;
#79 = DIRECTION ( 'NONE',  ( 0.0000000000000000000, -1.000000000000000000, -1.878145495644180600E-016 ) ) ;
#80 = DIRECTION ( 'NONE',  ( 0.0000000000000000000, -1.836909530733565900E-016, 1.000000000000000000 ) ) ;
#81 = CARTESIAN_POINT ( 'NONE',  ( 0.0000000000000000000, 3.228661597889730200E-017, 1.824234043981449100 ) ) ;
#82 = AXIS2_PLACEMENT_3D ( 'NONE', #81, #80, #79 ) ;
#83 = CIRCLE ( 'NONE', #82, 12.70000000000000300 ) ;
#84 = DIRECTION ( 'NONE',  ( 0.0000000000000000000, -1.000000000000000000, -1.508455196501571400E-016 ) ) ;
#85 = DIRECTION ( 'NONE',  ( 1.000000000000000000, 0.0000000000000000000, 0.0000000000000000000 ) ) ;
#86 = AXIS2_PLACEMENT_3D ( 'NONE', #137, #85, #84 ) ;
#87 = CARTESIAN_POINT ( 'NONE',  ( 0.0000000000000000000, 0.0000000000000000000, 2.000000000000000000 ) ) ;
#88 = LINE ( 'NONE', #102, #155 ) ;
#89 = CYLINDRICAL_SURFACE ( 'NONE', #105, 12.70000000000000300 ) ;
#90 = DIRECTION ( 'NONE',  ( 0.0000000000000000000, -1.000000000000000000, -1.365923996832131400E-016 ) ) ;
#91 = DIRECTION ( 'NONE',  ( 0.0000000000000000000, -1.836909530733565900E-016, 1.000000000000000000 ) ) ;
#92 = LINE ( 'NONE', #116, #123 ) ;
#93 = DIRECTION ( 'NONE',  ( 0.0000000000000000000, -1.000000000000000000, -1.365923996832131400E-016 ) ) ;
#94 = DIRECTION ( 'NONE',  ( 0.0000000000000000000, -1.836909530733565900E-016, 1.000000000000000000 ) ) ;
#95 = CARTESIAN_POINT ( 'NONE',  ( 0.0000000000000000000, -1.206679588375355000E-015, 8.569074677801197000 ) ) ;
#96 = FACE_OUTER_BOUND ( 'NONE', #36, .T. ) ;
#97 = CARTESIAN_POINT ( 'NONE',  ( 0.0000000000000000000, 3.811219894366002400E-015, 2.000000000000000000 ) ) ;
#98 = DIRECTION ( 'NONE',  ( 0.0000000000000000000, 0.0000000000000000000, -1.000000000000000000 ) ) ;
#99 = DIRECTION ( 'NONE',  ( 1.000000000000000000, 0.0000000000000000000, 0.0000000000000000000 ) ) ;
#100 = CARTESIAN_POINT ( 'NONE',  ( 0.0000000000000000000, 0.0000000000000000000, 17.56100000000000000 ) ) ;
#101 = AXIS2_PLACEMENT_3D ( 'NONE', #100, #99, #98 ) ;
#102 = CARTESIAN_POINT ( 'NONE',  ( 1.555250069354419500E-015, 12.70000000000000300, 2.000000000000002200 ) ) ;
#103 = DIRECTION ( 'NONE',  ( 0.0000000000000000000, -1.000000000000000000, -1.707404996040164000E-016 ) ) ;
#104 = DIRECTION ( 'NONE',  ( 0.0000000000000000000, -1.836909530733565900E-016, 1.000000000000000000 ) ) ;
#105 = AXIS2_PLACEMENT_3D ( 'NONE', #87, #104, #103 ) ;
#106 = AXIS2_PLACEMENT_3D ( 'NONE', #61, #60, #117 ) ;
#107 = SPHERICAL_SURFACE ( 'NONE', #106, 23.00000000000000000 ) ;
#108 = CIRCLE ( 'NONE', #101, 15.56100000000000000 ) ;
#109 = DIRECTION ( 'NONE',  ( 0.0000000000000000000, 1.000000000000000000, 2.229578402386487900E-016 ) ) ;
#110 = CIRCLE ( 'NONE', #59, 12.70000000000000300 ) ;
#111 = CARTESIAN_POINT ( 'NONE',  ( 1.555250069354418900E-015, 12.70000000000000300, 1.824234043981449700 ) ) ;
#112 = FACE_OUTER_BOUND ( 'NONE', #42, .T. ) ;
#113 = DIRECTION ( 'NONE',  ( 0.0000000000000000000, -1.000000000000000000, -1.878145495644180600E-016 ) ) ;
#114 = DIRECTION ( 'NONE',  ( 0.0000000000000000000, -1.836909530733565900E-016, 1.000000000000000000 ) ) ;
#115 = CARTESIAN_POINT ( 'NONE',  ( 0.0000000000000000000, 3.228661597889730200E-017, 1.824234043981449100 ) ) ;
#116 = CARTESIAN_POINT ( 'NONE',  ( 0.0000000000000000000, -12.70000000000000300, 1.999999999999997800 ) ) ;
#117 = DIRECTION ( 'NONE',  ( 0.0000000000000000000, -1.000000000000000000, -1.508455196501571400E-016 ) ) ;
#118 = DIRECTION ( 'NONE',  ( 1.000000000000000000, 0.0000000000000000000, 0.0000000000000000000 ) ) ;
#119 = AXIS2_PLACEMENT_3D ( 'NONE', #149, #148, #118 ) ;
#120 = UNCERTAINTY_MEASURE_WITH_UNIT (LENGTH_MEASURE( 1.000000000000000100E-005 ), #126, 'distance_accuracy_value', 'NONE');
#121 =( NAMED_UNIT ( * ) SI_UNIT ( $, .STERADIAN. ) SOLID_ANGLE_UNIT ( ) );
#122 = DIRECTION ( 'NONE',  ( 0.0000000000000000000, -1.836909530733565900E-016, 1.000000000000000000 ) ) ;
#123 = VECTOR ( 'NONE', #122, 1000.000000000000000 ) ;
#124 = AXIS2_PLACEMENT_3D ( 'NONE', #139, #91, #90 ) ;
#125 =( NAMED_UNIT ( * ) PLANE_ANGLE_UNIT ( ) SI_UNIT ( $, .RADIAN. ) );
#126 =( LENGTH_UNIT ( ) NAMED_UNIT ( * ) SI_UNIT ( .MILLI., .METRE. ) );
#127 = DIRECTION ( 'NONE',  ( 0.0000000000000000000, -1.000000000000000000, -1.707404996040164000E-016 ) ) ;
#128 = DIRECTION ( 'NONE',  ( 0.0000000000000000000, -1.836909530733565900E-016, 1.000000000000000000 ) ) ;
#129 = CARTESIAN_POINT ( 'NONE',  ( 0.0000000000000000000, 0.0000000000000000000, 2.000000000000000000 ) ) ;
#130 = AXIS2_PLACEMENT_3D ( 'NONE', #95, #94, #93 ) ;
#131 = CIRCLE ( 'NONE', #130, 12.70000000000000300 ) ;
#132 = FACE_OUTER_BOUND ( 'NONE', #31, .T. ) ;
#133 = DIRECTION ( 'NONE',  ( -1.224606353822377300E-016, -1.000000000000000000, 0.0000000000000000000 ) ) ;
#134 = DIRECTION ( 'NONE',  ( -1.000000000000000000, 1.224606353822377300E-016, 2.249491082733206200E-032 ) ) ;
#135 = CARTESIAN_POINT ( 'NONE',  ( 0.0000000000000000000, 0.0000000000000000000, 17.56100000000000000 ) ) ;
#136 = AXIS2_PLACEMENT_3D ( 'NONE', #135, #134, #133 ) ;
#137 = CARTESIAN_POINT ( 'NONE',  ( 0.0000000000000000000, 0.0000000000000000000, 20.99999999999999600 ) ) ;
#138 = FACE_OUTER_BOUND ( 'NONE', #11, .T. ) ;
#139 = CARTESIAN_POINT ( 'NONE',  ( 0.0000000000000000000, -1.206679588375355000E-015, 8.569074677801197000 ) ) ;
#140 = CARTESIAN_POINT ( 'NONE',  ( -1.555250069354419300E-015, -12.70000000000000100, 8.569074677801195300 ) ) ;
#141 = FACE_OUTER_BOUND ( 'NONE', #9, .T. ) ;
#142 = CARTESIAN_POINT ( 'NONE',  ( 0.0000000000000000000, 2.816594613791467700E-015, -2.000000000000001800 ) ) ;
#143 = DIRECTION ( 'NONE',  ( 0.0000000000000000000, 0.0000000000000000000, 1.000000000000000000 ) ) ;
#144 = DIRECTION ( 'NONE',  ( -1.000000000000000000, 0.0000000000000000000, 0.0000000000000000000 ) ) ;
#145 = AXIS2_PLACEMENT_3D ( 'NONE', #152, #144, #143 ) ;
#146 = CIRCLE ( 'NONE', #145, 23.00000000000000000 ) ;
#147 = CIRCLE ( 'NONE', #124, 12.70000000000000300 ) ;
#148 = DIRECTION ( 'NONE',  ( 0.0000000000000000000, 0.0000000000000000000, 1.000000000000000000 ) ) ;
#149 = CARTESIAN_POINT ( 'NONE',  ( 0.0000000000000000000, 0.0000000000000000000, 0.0000000000000000000 ) ) ;
#150 = ADVANCED_BREP_SHAPE_REPRESENTATION ( '20226-E0W', ( #48, #119 ), #151 ) ;
#151 =( GEOMETRIC_REPRESENTATION_CONTEXT ( 3 ) GLOBAL_UNCERTAINTY_ASSIGNED_CONTEXT ( ( #120 ) ) GLOBAL_UNIT_ASSIGNED_CONTEXT ( ( #126, #125, #121 ) ) REPRESENTATION_CONTEXT ( 'NONE', 'WORKASPACE' ) );
#152 = CARTESIAN_POINT ( 'NONE',  ( 0.0000000000000000000, 0.0000000000000000000, 20.99999999999999600 ) ) ;
#153 = CARTESIAN_POINT ( 'NONE',  ( 0.0000000000000000000, 12.70000000000000100, 8.569074677801198800 ) ) ;
#154 = DIRECTION ( 'NONE',  ( 0.0000000000000000000, -1.836909530733565900E-016, 1.000000000000000000 ) ) ;
#155 = VECTOR ( 'NONE', #154, 1000.000000000000000 ) ;
#156 = CIRCLE ( 'NONE', #136, 15.56100000000000000 ) ;
#157 = LOCAL_TIME ( 16, 11, 26.00000000000000000, #158 ) ;
#158 = COORDINATED_UNIVERSAL_TIME_OFFSET ( 5, 0, .BEHIND. ) ;
#159 = CC_DESIGN_PERSON_AND_ORGANIZATION_ASSIGNMENT ( #199, #198, ( #200 ) ) ;
#160 = SHAPE_DEFINITION_REPRESENTATION ( #161, #150 ) ;
#161 = PRODUCT_DEFINITION_SHAPE ( 'NONE', 'NONE',  #197 ) ;
#162 = PRODUCT_RELATED_PRODUCT_CATEGORY ( 'detail', '', ( #29 ) ) ;
#163 = CC_DESIGN_APPROVAL ( #171, ( #206 ) ) ;
#164 = APPROVAL_DATE_TIME ( #168, #171 ) ;
#165 = CALENDAR_DATE ( 2009, 14, 9 ) ;
#166 = LOCAL_TIME ( 16, 11, 26.00000000000000000, #169 ) ;
#167 = APPROVAL_PERSON_ORGANIZATION ( #190, #227, #214 ) ;
#168 = DATE_AND_TIME ( #165, #166 ) ;
#169 = COORDINATED_UNIVERSAL_TIME_OFFSET ( 5, 0, .BEHIND. ) ;
#170 = APPROVAL_PERSON_ORGANIZATION ( #205, #171, #203 ) ;
#171 = APPROVAL ( #204, 'UNSPECIFIED' ) ;
#172 = CC_DESIGN_PERSON_AND_ORGANIZATION_ASSIGNMENT ( #191, #212, ( #29 ) ) ;
#173 = DESIGN_CONTEXT ( 'detailed design', #215, 'design' ) ;
#174 = COORDINATED_UNIVERSAL_TIME_OFFSET ( 5, 0, .BEHIND. ) ;
#175 = DATE_TIME_ROLE ( 'creation_date' ) ;
#176 = DATE_AND_TIME ( #181, #182 ) ;
#177 = SECURITY_CLASSIFICATION_LEVEL ( 'unclassified' ) ;
#178 = CC_DESIGN_PERSON_AND_ORGANIZATION_ASSIGNMENT ( #193, #192, ( #206 ) ) ;
#179 = APPROVAL_STATUS ( 'not_yet_approved' ) ;
#180 = APPLICATION_PROTOCOL_DEFINITION ( 'international standard', 'config_control_design', 1994, #215 ) ;
#181 = CALENDAR_DATE ( 2009, 14, 9 ) ;
#182 = LOCAL_TIME ( 16, 11, 26.00000000000000000, #174 ) ;
#183 = LOCAL_TIME ( 16, 11, 26.00000000000000000, #213 ) ;
#184 = DATE_AND_TIME ( #210, #211 ) ;
#185 = COORDINATED_UNIVERSAL_TIME_OFFSET ( 5, 0, .BEHIND. ) ;
#186 = APPROVAL_PERSON_ORGANIZATION ( #217, #188, #187 ) ;
#187 = APPROVAL_ROLE ( '' ) ;
#188 = APPROVAL ( #216, 'UNSPECIFIED' ) ;
#189 = PERSON_AND_ORGANIZATION ( #24, #25 ) ;
#190 = PERSON_AND_ORGANIZATION ( #24, #25 ) ;
#191 = PERSON_AND_ORGANIZATION ( #24, #25 ) ;
#192 = PERSON_AND_ORGANIZATION_ROLE ( 'design_supplier' ) ;
#193 = PERSON_AND_ORGANIZATION ( #24, #25 ) ;
#194 = CC_DESIGN_PERSON_AND_ORGANIZATION_ASSIGNMENT ( #226, #195, ( #206 ) ) ;
#195 = PERSON_AND_ORGANIZATION_ROLE ( 'creator' ) ;
#196 = CC_DESIGN_APPROVAL ( #227, ( #197 ) ) ;
#197 = PRODUCT_DEFINITION ( 'UNKNOWN', '', #206, #173 ) ;
#198 = PERSON_AND_ORGANIZATION_ROLE ( 'classification_officer' ) ;
#199 = PERSON_AND_ORGANIZATION ( #24, #25 ) ;
#200 = SECURITY_CLASSIFICATION ( '', '', #177 ) ;
#201 = APPROVAL_DATE_TIME ( #202, #227 ) ;
#202 = DATE_AND_TIME ( #222, #183 ) ;
#203 = APPROVAL_ROLE ( '' ) ;
#204 = APPROVAL_STATUS ( 'not_yet_approved' ) ;
#205 = PERSON_AND_ORGANIZATION ( #24, #25 ) ;
#206 = PRODUCT_DEFINITION_FORMATION_WITH_SPECIFIED_SOURCE ( 'ANY', '', #29, .NOT_KNOWN. ) ;
#207 = CC_DESIGN_SECURITY_CLASSIFICATION ( #200, ( #206 ) ) ;
#208 = CC_DESIGN_APPROVAL ( #188, ( #200 ) ) ;
#209 = APPROVAL_DATE_TIME ( #184, #188 ) ;
#210 = CALENDAR_DATE ( 2009, 14, 9 ) ;
#211 = LOCAL_TIME ( 16, 11, 26.00000000000000000, #185 ) ;
#212 = PERSON_AND_ORGANIZATION_ROLE ( 'design_owner' ) ;
#213 = COORDINATED_UNIVERSAL_TIME_OFFSET ( 5, 0, .BEHIND. ) ;
#214 = APPROVAL_ROLE ( '' ) ;
#215 = APPLICATION_CONTEXT ( 'configuration controlled 3d designs of mechanical parts and assemblies' ) ;
#216 = APPROVAL_STATUS ( 'not_yet_approved' ) ;
#217 = PERSON_AND_ORGANIZATION ( #24, #25 ) ;
#218 = CC_DESIGN_DATE_AND_TIME_ASSIGNMENT ( #220, #219, ( #200 ) ) ;
#219 = DATE_TIME_ROLE ( 'classification_date' ) ;
#220 = DATE_AND_TIME ( #221, #157 ) ;
#221 = CALENDAR_DATE ( 2009, 14, 9 ) ;
#222 = CALENDAR_DATE ( 2009, 14, 9 ) ;
#223 = CC_DESIGN_PERSON_AND_ORGANIZATION_ASSIGNMENT ( #189, #224, ( #197 ) ) ;
#224 = PERSON_AND_ORGANIZATION_ROLE ( 'creator' ) ;
#225 = CC_DESIGN_DATE_AND_TIME_ASSIGNMENT ( #176, #175, ( #197 ) ) ;
#226 = PERSON_AND_ORGANIZATION ( #24, #25 ) ;
#227 = APPROVAL ( #179, 'UNSPECIFIED' ) ;
ENDSEC;
END-ISO-10303-21;
