ISO-10303-21;
HEADER;
FILE_DESCRIPTION (( 'STEP AP203' ),
    '1' );
FILE_NAME ('Web Model 17222_19715.step',
    '2021-10-06T17:55:10',
    ( '' ),
    ( '' ),
    'SwSTEP 2.0',
    'SolidWorks 2018',
    '' );
FILE_SCHEMA (( 'CONFIG_CONTROL_DESIGN' ));
ENDSEC;

DATA;
#1 = COORDINATED_UNIVERSAL_TIME_OFFSET ( 5, 0, .BEHIND. ) ;
#2 = ORIENTED_EDGE ( 'NONE', *, *, #36, .T. ) ;
#3 = APPROVAL_ROLE ( '' ) ;
#4 = UNCERTAINTY_MEASURE_WITH_UNIT (LENGTH_MEASURE( 1.000000000000000082E-05 ), #148, 'distance_accuracy_value', 'NONE');
#5 = APPROVAL_STATUS ( 'not_yet_approved' ) ;
#6 = EDGE_CURVE ( 'NONE', #139, #160, #125, .T. ) ;
#7 = CARTESIAN_POINT ( 'NONE',  ( 0.000000000000000000, 0.000000000000000000, 1.000000000000000000 ) ) ;
#8 = DIRECTION ( 'NONE',  ( -0.000000000000000000, -0.000000000000000000, -1.000000000000000000 ) ) ;
#9 = DIRECTION ( 'NONE',  ( 1.000000000000000000, 0.000000000000000000, -0.000000000000000000 ) ) ;
#10 = PERSON_AND_ORGANIZATION ( #45, #52 ) ;
#11 = APPROVAL ( #101, 'UNSPECIFIED' ) ;
#12 = CARTESIAN_POINT ( 'NONE',  ( 6.349999999999999645, 7.776507174585692163E-16, 1.000000000000000000 ) ) ;
#13 = CARTESIAN_POINT ( 'NONE',  ( 0.000000000000000000, 0.000000000000000000, 0.000000000000000000 ) ) ;
#14 = CIRCLE ( 'NONE', #117, 6.349999999999999645 ) ;
#15 = DATE_AND_TIME ( #109, #144 ) ;
#16 = CC_DESIGN_PERSON_AND_ORGANIZATION_ASSIGNMENT ( #159, #153, ( #44 ) ) ;
#17 = PRODUCT_DEFINITION ( 'UNKNOWN', '', #44, #96 ) ;
#18 = PRODUCT_RELATED_PRODUCT_CATEGORY ( 'detail', '', ( #141 ) ) ;
#19 = DATE_AND_TIME ( #136, #142 ) ;
#20 = ORIENTED_EDGE ( 'NONE', *, *, #36, .F. ) ;
#21 = CARTESIAN_POINT ( 'NONE',  ( 6.349999999999999645, 7.776507174585692163E-16, 0.000000000000000000 ) ) ;
#22 = APPLICATION_CONTEXT ( 'configuration controlled 3d designs of mechanical parts and assemblies' ) ;
#23 = CC_DESIGN_APPROVAL ( #11, ( #27 ) ) ;
#24 = DIRECTION ( 'NONE',  ( 1.000000000000000000, 0.000000000000000000, 0.000000000000000000 ) ) ;
#25 = CALENDAR_DATE ( 2021, 6, 10 ) ;
#26 = APPLICATION_PROTOCOL_DEFINITION ( 'international standard', 'config_control_design', 1994, #84 ) ;
#27 = SECURITY_CLASSIFICATION ( '', '', #75 ) ;
#28 = CARTESIAN_POINT ( 'NONE',  ( 0.000000000000000000, 0.000000000000000000, 1.000000000000000000 ) ) ;
#29 = DATE_AND_TIME ( #146, #157 ) ;
#30 = VECTOR ( 'NONE', #55, 1000.000000000000000 ) ;
#31 = CC_DESIGN_APPROVAL ( #172, ( #17 ) ) ;
#32 = FACE_OUTER_BOUND ( 'NONE', #46, .T. ) ;
#33 = PERSON_AND_ORGANIZATION_ROLE ( 'design_owner' ) ;
#34 = PERSON_AND_ORGANIZATION_ROLE ( 'creator' ) ;
#35 = PERSON_AND_ORGANIZATION ( #45, #52 ) ;
#36 = EDGE_CURVE ( 'NONE', #160, #57, #175, .T. ) ;
#37 = MECHANICAL_CONTEXT ( 'NONE', #84, 'mechanical' ) ;
#38 = EDGE_CURVE ( 'NONE', #60, #57, #155, .T. ) ;
#39 = PLANE ( 'NONE',  #161 ) ;
#40 = AXIS2_PLACEMENT_3D ( 'NONE', #13, #92, #42 ) ;
#41 = PRODUCT_DEFINITION_SHAPE ( 'NONE', 'NONE',  #17 ) ;
#42 = DIRECTION ( 'NONE',  ( 1.000000000000000000, 0.000000000000000000, 0.000000000000000000 ) ) ;
#43 = APPROVAL_DATE_TIME ( #19, #54 ) ;
#44 = PRODUCT_DEFINITION_FORMATION_WITH_SPECIFIED_SOURCE ( 'ANY', '', #141, .NOT_KNOWN. ) ;
#45 = PERSON ( 'UNSPECIFIED', 'UNSPECIFIED', 'UNSPECIFIED', ('UNSPECIFIED'), ('UNSPECIFIED'), ('UNSPECIFIED') ) ;
#46 = EDGE_LOOP ( 'NONE', ( #80, #147, #2, #119 ) ) ;
#47 = APPROVAL_ROLE ( '' ) ;
#48 = APPROVAL_PERSON_ORGANIZATION ( #116, #54, #3 ) ;
#49 = DIRECTION ( 'NONE',  ( 1.000000000000000000, 0.000000000000000000, -0.000000000000000000 ) ) ;
#50 = DATE_TIME_ROLE ( 'creation_date' ) ;
#51 = DATE_AND_TIME ( #90, #158 ) ;
#52 = ORGANIZATION ( 'UNSPECIFIED', 'UNSPECIFIED', '' ) ;
#53 = CC_DESIGN_PERSON_AND_ORGANIZATION_ASSIGNMENT ( #127, #169, ( #27 ) ) ;
#54 = APPROVAL ( #138, 'UNSPECIFIED' ) ;
#55 = DIRECTION ( 'NONE',  ( -0.000000000000000000, -0.000000000000000000, -1.000000000000000000 ) ) ;
#56 = ADVANCED_FACE ( 'NONE', ( #32 ), #123, .T. ) ;
#57 = VERTEX_POINT ( 'NONE', #66 ) ;
#58 = CIRCLE ( 'NONE', #173, 6.349999999999999645 ) ;
#59 = ADVANCED_FACE ( 'NONE', ( #174 ), #39, .F. ) ;
#60 = VERTEX_POINT ( 'NONE', #132 ) ;
#61 = CC_DESIGN_DATE_AND_TIME_ASSIGNMENT ( #29, #89, ( #27 ) ) ;
#62 = CARTESIAN_POINT ( 'NONE',  ( 0.000000000000000000, 0.000000000000000000, 1.000000000000000000 ) ) ;
#63 = MANIFOLD_SOLID_BREP ( 'Boss-Extrude1', #77 ) ;
#64 = CARTESIAN_POINT ( 'NONE',  ( -6.349999999999999645, 0.000000000000000000, 1.000000000000000000 ) ) ;
#65 = EDGE_LOOP ( 'NONE', ( #104, #115 ) ) ;
#66 = CARTESIAN_POINT ( 'NONE',  ( -6.349999999999999645, 0.000000000000000000, 0.000000000000000000 ) ) ;
#67 = ADVANCED_FACE ( 'NONE', ( #143 ), #154, .T. ) ;
#68 = VECTOR ( 'NONE', #156, 1000.000000000000000 ) ;
#69 = CC_DESIGN_APPROVAL ( #54, ( #44 ) ) ;
#70 = AXIS2_PLACEMENT_3D ( 'NONE', #74, #8, #100 ) ;
#71 = ORIENTED_EDGE ( 'NONE', *, *, #38, .T. ) ;
#72 = DIRECTION ( 'NONE',  ( 0.000000000000000000, 0.000000000000000000, 1.000000000000000000 ) ) ;
#73 = EDGE_CURVE ( 'NONE', #139, #60, #58, .T. ) ;
#74 = CARTESIAN_POINT ( 'NONE',  ( 0.000000000000000000, 0.000000000000000000, 1.000000000000000000 ) ) ;
#75 = SECURITY_CLASSIFICATION_LEVEL ( 'unclassified' ) ;
#76 = DIRECTION ( 'NONE',  ( 1.000000000000000000, 0.000000000000000000, 0.000000000000000000 ) ) ;
#77 = CLOSED_SHELL ( 'NONE', ( #56, #145, #67, #59 ) ) ;
#78 =( GEOMETRIC_REPRESENTATION_CONTEXT ( 3 ) GLOBAL_UNCERTAINTY_ASSIGNED_CONTEXT ( ( #4 ) ) GLOBAL_UNIT_ASSIGNED_CONTEXT ( ( #148, #108, #150 ) ) REPRESENTATION_CONTEXT ( 'NONE', 'WORKASPACE' ) );
#79 = PERSON_AND_ORGANIZATION ( #45, #52 ) ;
#80 = ORIENTED_EDGE ( 'NONE', *, *, #73, .F. ) ;
#81 = APPROVAL_DATE_TIME ( #51, #172 ) ;
#82 = ORIENTED_EDGE ( 'NONE', *, *, #98, .F. ) ;
#83 = DIRECTION ( 'NONE',  ( 1.000000000000000000, 0.000000000000000000, 0.000000000000000000 ) ) ;
#84 = APPLICATION_CONTEXT ( 'configuration controlled 3d designs of mechanical parts and assemblies' ) ;
#85 = ADVANCED_BREP_SHAPE_REPRESENTATION ( 'Web Model 17222_19715', ( #63, #151 ), #78 ) ;
#86 = CC_DESIGN_PERSON_AND_ORGANIZATION_ASSIGNMENT ( #10, #34, ( #17 ) ) ;
#87 = CARTESIAN_POINT ( 'NONE',  ( 6.349999999999999645, 7.776507174585692163E-16, 1.000000000000000000 ) ) ;
#88 = AXIS2_PLACEMENT_3D ( 'NONE', #112, #97, #49 ) ;
#89 = DATE_TIME_ROLE ( 'classification_date' ) ;
#90 = CALENDAR_DATE ( 2021, 6, 10 ) ;
#91 = CARTESIAN_POINT ( 'NONE',  ( 0.000000000000000000, 0.000000000000000000, 0.000000000000000000 ) ) ;
#92 = DIRECTION ( 'NONE',  ( 0.000000000000000000, 0.000000000000000000, 1.000000000000000000 ) ) ;
#93 = ORIENTED_EDGE ( 'NONE', *, *, #111, .F. ) ;
#94 = APPROVAL_PERSON_ORGANIZATION ( #79, #11, #47 ) ;
#95 = EDGE_LOOP ( 'NONE', ( #82, #20 ) ) ;
#96 = DESIGN_CONTEXT ( 'detailed design', #22, 'design' ) ;
#97 = DIRECTION ( 'NONE',  ( 0.000000000000000000, 0.000000000000000000, 1.000000000000000000 ) ) ;
#98 = EDGE_CURVE ( 'NONE', #57, #160, #171, .T. ) ;
#99 = DIRECTION ( 'NONE',  ( 1.000000000000000000, 0.000000000000000000, 0.000000000000000000 ) ) ;
#100 = DIRECTION ( 'NONE',  ( -1.000000000000000000, 0.000000000000000000, 0.000000000000000000 ) ) ;
#101 = APPROVAL_STATUS ( 'not_yet_approved' ) ;
#102 = DIRECTION ( 'NONE',  ( 0.000000000000000000, 0.000000000000000000, 1.000000000000000000 ) ) ;
#103 = FACE_OUTER_BOUND ( 'NONE', #130, .T. ) ;
#104 = ORIENTED_EDGE ( 'NONE', *, *, #111, .T. ) ;
#105 = AXIS2_PLACEMENT_3D ( 'NONE', #165, #102, #83 ) ;
#106 = SHAPE_DEFINITION_REPRESENTATION ( #41, #85 ) ;
#107 = ORIENTED_EDGE ( 'NONE', *, *, #6, .F. ) ;
#108 =( NAMED_UNIT ( * ) PLANE_ANGLE_UNIT ( ) SI_UNIT ( $, .RADIAN. ) );
#109 = CALENDAR_DATE ( 2021, 6, 10 ) ;
#110 = APPROVAL_ROLE ( '' ) ;
#111 = EDGE_CURVE ( 'NONE', #60, #139, #14, .T. ) ;
#112 = CARTESIAN_POINT ( 'NONE',  ( 0.000000000000000000, 0.000000000000000000, 1.000000000000000000 ) ) ;
#113 = PERSON_AND_ORGANIZATION_ROLE ( 'creator' ) ;
#114 = COORDINATED_UNIVERSAL_TIME_OFFSET ( 5, 0, .BEHIND. ) ;
#115 = ORIENTED_EDGE ( 'NONE', *, *, #73, .T. ) ;
#116 = PERSON_AND_ORGANIZATION ( #45, #52 ) ;
#117 = AXIS2_PLACEMENT_3D ( 'NONE', #62, #170, #99 ) ;
#118 = DATE_AND_TIME ( #25, #124 ) ;
#119 = ORIENTED_EDGE ( 'NONE', *, *, #38, .F. ) ;
#120 = CC_DESIGN_DATE_AND_TIME_ASSIGNMENT ( #15, #50, ( #17 ) ) ;
#121 = AXIS2_PLACEMENT_3D ( 'NONE', #28, #134, #140 ) ;
#122 = PERSON_AND_ORGANIZATION ( #45, #52 ) ;
#123 = CYLINDRICAL_SURFACE ( 'NONE', #121, 6.349999999999999645 ) ;
#124 = LOCAL_TIME ( 13, 55, 10.00000000000000000, #162 ) ;
#125 = LINE ( 'NONE', #12, #30 ) ;
#126 = DIRECTION ( 'NONE',  ( 0.000000000000000000, 0.000000000000000000, 1.000000000000000000 ) ) ;
#127 = PERSON_AND_ORGANIZATION ( #45, #52 ) ;
#128 = COORDINATED_UNIVERSAL_TIME_OFFSET ( 5, 0, .BEHIND. ) ;
#129 = APPLICATION_PROTOCOL_DEFINITION ( 'international standard', 'config_control_design', 1994, #22 ) ;
#130 = EDGE_LOOP ( 'NONE', ( #107, #93, #71, #168 ) ) ;
#131 = CC_DESIGN_SECURITY_CLASSIFICATION ( #27, ( #44 ) ) ;
#132 = CARTESIAN_POINT ( 'NONE',  ( -6.349999999999999645, 0.000000000000000000, 1.000000000000000000 ) ) ;
#133 = CYLINDRICAL_SURFACE ( 'NONE', #70, 6.349999999999999645 ) ;
#134 = DIRECTION ( 'NONE',  ( -0.000000000000000000, -0.000000000000000000, -1.000000000000000000 ) ) ;
#135 = CC_DESIGN_PERSON_AND_ORGANIZATION_ASSIGNMENT ( #122, #113, ( #44 ) ) ;
#136 = CALENDAR_DATE ( 2021, 6, 10 ) ;
#137 = PERSON_AND_ORGANIZATION ( #45, #52 ) ;
#138 = APPROVAL_STATUS ( 'not_yet_approved' ) ;
#139 = VERTEX_POINT ( 'NONE', #87 ) ;
#140 = DIRECTION ( 'NONE',  ( -1.000000000000000000, 0.000000000000000000, 0.000000000000000000 ) ) ;
#141 = PRODUCT ( 'Web Model 17222_19715', 'Web Model 17222_19715', '', ( #37 ) ) ;
#142 = LOCAL_TIME ( 13, 55, 10.00000000000000000, #114 ) ;
#143 = FACE_OUTER_BOUND ( 'NONE', #65, .T. ) ;
#144 = LOCAL_TIME ( 13, 55, 10.00000000000000000, #149 ) ;
#145 = ADVANCED_FACE ( 'NONE', ( #103 ), #133, .T. ) ;
#146 = CALENDAR_DATE ( 2021, 6, 10 ) ;
#147 = ORIENTED_EDGE ( 'NONE', *, *, #6, .T. ) ;
#148 =( LENGTH_UNIT ( ) NAMED_UNIT ( * ) SI_UNIT ( .MILLI., .METRE. ) );
#149 = COORDINATED_UNIVERSAL_TIME_OFFSET ( 5, 0, .BEHIND. ) ;
#150 =( NAMED_UNIT ( * ) SI_UNIT ( $, .STERADIAN. ) SOLID_ANGLE_UNIT ( ) );
#151 = AXIS2_PLACEMENT_3D ( 'NONE', #164, #152, #24 ) ;
#152 = DIRECTION ( 'NONE',  ( 0.000000000000000000, 0.000000000000000000, 1.000000000000000000 ) ) ;
#153 = PERSON_AND_ORGANIZATION_ROLE ( 'design_supplier' ) ;
#154 = PLANE ( 'NONE',  #88 ) ;
#155 = LINE ( 'NONE', #64, #68 ) ;
#156 = DIRECTION ( 'NONE',  ( -0.000000000000000000, -0.000000000000000000, -1.000000000000000000 ) ) ;
#157 = LOCAL_TIME ( 13, 55, 10.00000000000000000, #1 ) ;
#158 = LOCAL_TIME ( 13, 55, 10.00000000000000000, #128 ) ;
#159 = PERSON_AND_ORGANIZATION ( #45, #52 ) ;
#160 = VERTEX_POINT ( 'NONE', #21 ) ;
#161 = AXIS2_PLACEMENT_3D ( 'NONE', #91, #72, #9 ) ;
#162 = COORDINATED_UNIVERSAL_TIME_OFFSET ( 5, 0, .BEHIND. ) ;
#163 = APPROVAL_PERSON_ORGANIZATION ( #137, #172, #110 ) ;
#164 = CARTESIAN_POINT ( 'NONE',  ( 0.000000000000000000, 0.000000000000000000, 0.000000000000000000 ) ) ;
#165 = CARTESIAN_POINT ( 'NONE',  ( 0.000000000000000000, 0.000000000000000000, 0.000000000000000000 ) ) ;
#166 = APPROVAL_DATE_TIME ( #118, #11 ) ;
#167 = CC_DESIGN_PERSON_AND_ORGANIZATION_ASSIGNMENT ( #35, #33, ( #141 ) ) ;
#168 = ORIENTED_EDGE ( 'NONE', *, *, #98, .T. ) ;
#169 = PERSON_AND_ORGANIZATION_ROLE ( 'classification_officer' ) ;
#170 = DIRECTION ( 'NONE',  ( 0.000000000000000000, 0.000000000000000000, 1.000000000000000000 ) ) ;
#171 = CIRCLE ( 'NONE', #105, 6.349999999999999645 ) ;
#172 = APPROVAL ( #5, 'UNSPECIFIED' ) ;
#173 = AXIS2_PLACEMENT_3D ( 'NONE', #7, #126, #76 ) ;
#174 = FACE_OUTER_BOUND ( 'NONE', #95, .T. ) ;
#175 = CIRCLE ( 'NONE', #40, 6.349999999999999645 ) ;
ENDSEC;
END-ISO-10303-21;
