ISO-10303-21;
HEADER;
FILE_DESCRIPTION (( 'STEP AP214' ),
    '1' );
FILE_NAME ('4842-E0W.step',
    '2007-11-09T01:48:56',
    ( ' ' ),
    ( ' ' ),
    'SwSTEP 2.0',
    'SolidWorks 2007',
    '' );
FILE_SCHEMA (( 'AUTOMOTIVE_DESIGN' ));
ENDSEC;

DATA;
#1 =( CONVERSION_BASED_UNIT ( 'INCH', #101 ) LENGTH_UNIT ( ) NAMED_UNIT ( #102 ) );
#2 =( NAMED_UNIT ( * ) PLANE_ANGLE_UNIT ( ) SI_UNIT ( $, .RADIAN. ) );
#3 =( NAMED_UNIT ( * ) SI_UNIT ( $, .STERADIAN. ) SOLID_ANGLE_UNIT ( ) );
#4 = UNCERTAINTY_MEASURE_WITH_UNIT (LENGTH_MEASURE( 1.000000000000000100E-005 ), #1, 'distance_accuracy_value', 'NONE');
#5 =( GEOMETRIC_REPRESENTATION_CONTEXT ( 3 ) GLOBAL_UNCERTAINTY_ASSIGNED_CONTEXT ( ( #4 ) ) GLOBAL_UNIT_ASSIGNED_CONTEXT ( ( #1, #2, #3 ) ) REPRESENTATION_CONTEXT ( 'NONE', 'WORKASPACE' ) );
#6 = PRODUCT_DEFINITION_FORMATION_WITH_SPECIFIED_SOURCE ( 'ANY', '', #325, .NOT_KNOWN. ) ;
#7 = PRODUCT_RELATED_PRODUCT_CATEGORY ( 'part', '', ( #325 ) ) ;
#8 = ADVANCED_FACE ( 'NONE', ( #45 ), #84, .F. ) ;
#9 = EDGE_LOOP ( 'NONE', ( #10, #13, #60, #62 ) ) ;
#10 = ORIENTED_EDGE ( 'NONE', *, *, #11, .F. ) ;
#11 = EDGE_CURVE ( 'NONE', #12, #74, #80, .T. ) ;
#12 = VERTEX_POINT ( 'NONE', #132 ) ;
#13 = ORIENTED_EDGE ( 'NONE', *, *, #14, .T. ) ;
#14 = EDGE_CURVE ( 'NONE', #12, #15, #131, .T. ) ;
#15 = VERTEX_POINT ( 'NONE', #126 ) ;
#16 = ORIENTED_EDGE ( 'NONE', *, *, #17, .F. ) ;
#17 = EDGE_CURVE ( 'NONE', #18, #39, #125, .T. ) ;
#18 = VERTEX_POINT ( 'NONE', #120 ) ;
#19 = ORIENTED_EDGE ( 'NONE', *, *, #20, .F. ) ;
#20 = EDGE_CURVE ( 'NONE', #38, #18, #118, .T. ) ;
#21 = ADVANCED_FACE ( 'NONE', ( #119 ), #170, .T. ) ;
#22 = EDGE_LOOP ( 'NONE', ( #23, #26, #27, #72, #75, #78 ) ) ;
#23 = ORIENTED_EDGE ( 'NONE', *, *, #24, .T. ) ;
#24 = EDGE_CURVE ( 'NONE', #25, #38, #165, .T. ) ;
#25 = VERTEX_POINT ( 'NONE', #161 ) ;
#26 = ORIENTED_EDGE ( 'NONE', *, *, #20, .T. ) ;
#27 = ORIENTED_EDGE ( 'NONE', *, *, #28, .T. ) ;
#28 = EDGE_CURVE ( 'NONE', #18, #29, #160, .T. ) ;
#29 = VERTEX_POINT ( 'NONE', #156 ) ;
#30 = ORIENTED_EDGE ( 'NONE', *, *, #31, .T. ) ;
#31 = EDGE_CURVE ( 'NONE', #37, #39, #154, .T. ) ;
#32 = MANIFOLD_SOLID_BREP ( 'NONE', #47 ) ;
#33 = ADVANCED_FACE ( 'NONE', ( #189 ), #224, .T. ) ;
#34 = EDGE_LOOP ( 'NONE', ( #35, #30, #16, #19 ) ) ;
#35 = ORIENTED_EDGE ( 'NONE', *, *, #36, .F. ) ;
#36 = EDGE_CURVE ( 'NONE', #37, #38, #220, .T. ) ;
#37 = VERTEX_POINT ( 'NONE', #215 ) ;
#38 = VERTEX_POINT ( 'NONE', #214 ) ;
#39 = VERTEX_POINT ( 'NONE', #213 ) ;
#40 = SHAPE_DEFINITION_REPRESENTATION ( #41, #302 ) ;
#41 = PRODUCT_DEFINITION_SHAPE ( 'NONE', 'NONE',  #321 ) ;
#42 = FILL_AREA_STYLE ('',( #43 ) ) ;
#43 = FILL_AREA_STYLE_COLOUR ( '', #44 ) ;
#44 = COLOUR_RGB ( '',0.7529411764705882200, 0.7529411764705882200, 0.7529411764705882200 ) ;
#45 = FACE_OUTER_BOUND ( 'NONE', #9, .T. ) ;
#46 = ORIENTED_EDGE ( 'NONE', *, *, #51, .F. ) ;
#47 = CLOSED_SHELL ( 'NONE', ( #33, #21, #8, #63, #70, #55 ) ) ;
#48 = ORIENTED_EDGE ( 'NONE', *, *, #28, .F. ) ;
#49 = ORIENTED_EDGE ( 'NONE', *, *, #17, .T. ) ;
#50 = ORIENTED_EDGE ( 'NONE', *, *, #51, .T. ) ;
#51 = EDGE_CURVE ( 'NONE', #39, #25, #211, .T. ) ;
#52 = ORIENTED_EDGE ( 'NONE', *, *, #79, .T. ) ;
#53 = ORIENTED_EDGE ( 'NONE', *, *, #61, .F. ) ;
#54 = ORIENTED_EDGE ( 'NONE', *, *, #69, .F. ) ;
#55 = ADVANCED_FACE ( 'NONE', ( #212 ), #248, .T. ) ;
#56 = EDGE_LOOP ( 'NONE', ( #57, #58, #59, #46 ) ) ;
#57 = ORIENTED_EDGE ( 'NONE', *, *, #31, .F. ) ;
#58 = ORIENTED_EDGE ( 'NONE', *, *, #36, .T. ) ;
#59 = ORIENTED_EDGE ( 'NONE', *, *, #24, .F. ) ;
#60 = ORIENTED_EDGE ( 'NONE', *, *, #61, .T. ) ;
#61 = EDGE_CURVE ( 'NONE', #15, #77, #243, .T. ) ;
#62 = ORIENTED_EDGE ( 'NONE', *, *, #76, .T. ) ;
#63 = ADVANCED_FACE ( 'NONE', ( #238 ), #274, .F. ) ;
#64 = EDGE_LOOP ( 'NONE', ( #65, #66, #67, #68 ) ) ;
#65 = ORIENTED_EDGE ( 'NONE', *, *, #14, .F. ) ;
#66 = ORIENTED_EDGE ( 'NONE', *, *, #11, .T. ) ;
#67 = ORIENTED_EDGE ( 'NONE', *, *, #73, .T. ) ;
#68 = ORIENTED_EDGE ( 'NONE', *, *, #69, .T. ) ;
#69 = EDGE_CURVE ( 'NONE', #29, #15, #269, .T. ) ;
#70 = ADVANCED_FACE ( 'NONE', ( #264 ), #291, .T. ) ;
#71 = EDGE_LOOP ( 'NONE', ( #48, #49, #50, #52, #53, #54 ) ) ;
#72 = ORIENTED_EDGE ( 'NONE', *, *, #73, .F. ) ;
#73 = EDGE_CURVE ( 'NONE', #74, #29, #287, .T. ) ;
#74 = VERTEX_POINT ( 'NONE', #283 ) ;
#75 = ORIENTED_EDGE ( 'NONE', *, *, #76, .F. ) ;
#76 = EDGE_CURVE ( 'NONE', #77, #74, #282, .T. ) ;
#77 = VERTEX_POINT ( 'NONE', #316 ) ;
#78 = ORIENTED_EDGE ( 'NONE', *, *, #79, .F. ) ;
#79 = EDGE_CURVE ( 'NONE', #25, #77, #315, .T. ) ;
#80 = CIRCLE ( 'NONE', #136, 3.657480314960630500 ) ;
#81 = DIRECTION ( 'NONE',  ( 0.0000000000000000000, 1.000000000000000000, 0.0000000000000000000 ) ) ;
#82 = DIRECTION ( 'NONE',  ( 0.0000000000000000000, 0.0000000000000000000, 1.000000000000000000 ) ) ;
#83 = AXIS2_PLACEMENT_3D ( 'NONE', #85, #82, #81 ) ;
#84 = SPHERICAL_SURFACE ( 'NONE', #83, 3.657480314960630500 ) ;
#85 = CARTESIAN_POINT ( 'NONE',  ( 0.4545480376286105700, 1.358932922870714100, 0.8722530675037537500 ) ) ;
#86 =( GEOMETRIC_REPRESENTATION_CONTEXT ( 3 ) GLOBAL_UNCERTAINTY_ASSIGNED_CONTEXT ( ( #87 ) ) GLOBAL_UNIT_ASSIGNED_CONTEXT ( ( #90, #89, #88 ) ) REPRESENTATION_CONTEXT ( 'NONE', 'WORKASPACE' ) );
#87 = UNCERTAINTY_MEASURE_WITH_UNIT (LENGTH_MEASURE( 1.000000000000000100E-005 ), #90, 'distance_accuracy_value', 'NONE');
#88 =( NAMED_UNIT ( * ) SI_UNIT ( $, .STERADIAN. ) SOLID_ANGLE_UNIT ( ) );
#89 =( NAMED_UNIT ( * ) PLANE_ANGLE_UNIT ( ) SI_UNIT ( $, .RADIAN. ) );
#90 =( CONVERSION_BASED_UNIT ( 'INCH', #91 ) LENGTH_UNIT ( ) NAMED_UNIT ( #92 ) );
#91 = LENGTH_MEASURE_WITH_UNIT ( LENGTH_MEASURE( 0.02539999999999999900 ), #93 );
#92 = DIMENSIONAL_EXPONENTS ( 1.000000000000000000, 0.0000000000000000000, 0.0000000000000000000, 0.0000000000000000000, 0.0000000000000000000, 0.0000000000000000000, 0.0000000000000000000 ) ;
#93 =( LENGTH_UNIT ( ) NAMED_UNIT ( * ) SI_UNIT ( $, .METRE. ) );
#94 = MECHANICAL_DESIGN_GEOMETRIC_PRESENTATION_REPRESENTATION (  '', ( #96 ), #86 ) ;
#95 = PRESENTATION_LAYER_ASSIGNMENT (  '', '', ( #96 ) ) ;
#96 = STYLED_ITEM ( 'NONE', ( #97 ), #8 ) ;
#97 = PRESENTATION_STYLE_ASSIGNMENT (( #98 ) ) ;
#98 = SURFACE_STYLE_USAGE ( .BOTH. , #99 ) ;
#99 = SURFACE_SIDE_STYLE ('',( #100 ) ) ;
#100 = SURFACE_STYLE_FILL_AREA ( #42 ) ;
#101 = LENGTH_MEASURE_WITH_UNIT ( LENGTH_MEASURE( 0.02539999999999999900 ), #103 );
#102 = DIMENSIONAL_EXPONENTS ( 1.000000000000000000, 0.0000000000000000000, 0.0000000000000000000, 0.0000000000000000000, 0.0000000000000000000, 0.0000000000000000000, 0.0000000000000000000 ) ;
#103 =( LENGTH_UNIT ( ) NAMED_UNIT ( * ) SI_UNIT ( $, .METRE. ) );
#104 = MECHANICAL_DESIGN_GEOMETRIC_PRESENTATION_REPRESENTATION (  '', ( #106 ), #5 ) ;
#105 = PRESENTATION_LAYER_ASSIGNMENT (  '', '', ( #106 ) ) ;
#106 = STYLED_ITEM ( 'NONE', ( #107 ), #21 ) ;
#107 = PRESENTATION_STYLE_ASSIGNMENT (( #108 ) ) ;
#108 = SURFACE_STYLE_USAGE ( .BOTH. , #109 ) ;
#109 = SURFACE_SIDE_STYLE ('',( #110 ) ) ;
#110 = SURFACE_STYLE_FILL_AREA ( #111 ) ;
#111 = FILL_AREA_STYLE ('',( #112 ) ) ;
#112 = FILL_AREA_STYLE_COLOUR ( '', #113 ) ;
#113 = COLOUR_RGB ( '',0.7529411764705882200, 0.7529411764705882200, 0.7529411764705882200 ) ;
#114 = DIRECTION ( 'NONE',  ( 0.0000000000000000000, 0.0000000000000000000, -1.000000000000000000 ) ) ;
#115 = DIRECTION ( 'NONE',  ( 1.000000000000000000, 0.0000000000000000000, 0.0000000000000000000 ) ) ;
#116 = CARTESIAN_POINT ( 'NONE',  ( -3.157958353440021500, 1.358932922870714100, 0.8722530675037537500 ) ) ;
#117 = AXIS2_PLACEMENT_3D ( 'NONE', #116, #115, #114 ) ;
#118 = CIRCLE ( 'NONE', #117, 1.000000000000000200 ) ;
#119 = FACE_OUTER_BOUND ( 'NONE', #22, .T. ) ;
#120 = CARTESIAN_POINT ( 'NONE',  ( -3.157958353440021500, 1.358932922870714100, 1.872253067503753900 ) ) ;
#121 = DIRECTION ( 'NONE',  ( 0.0000000000000000000, 0.0000000000000000000, -1.000000000000000000 ) ) ;
#122 = DIRECTION ( 'NONE',  ( 1.000000000000000000, 0.0000000000000000000, 0.0000000000000000000 ) ) ;
#123 = CARTESIAN_POINT ( 'NONE',  ( -3.157958353440021500, 1.358932922870714100, 0.8722530675037537500 ) ) ;
#124 = AXIS2_PLACEMENT_3D ( 'NONE', #123, #122, #121 ) ;
#125 = CIRCLE ( 'NONE', #124, 1.000000000000000200 ) ;
#126 = CARTESIAN_POINT ( 'NONE',  ( -3.063571098262684300, 0.3589329228707140400, 0.8722530675037538600 ) ) ;
#127 = DIRECTION ( 'NONE',  ( 0.0000000000000000000, -1.000000000000000000, 1.120381147024848400E-016 ) ) ;
#128 = DIRECTION ( 'NONE',  ( 0.0000000000000000000, 1.224606353822377300E-016, 1.000000000000000000 ) ) ;
#129 = CARTESIAN_POINT ( 'NONE',  ( 0.4545480376286105700, 1.358932922870714100, 0.8722530675037537500 ) ) ;
#130 = AXIS2_PLACEMENT_3D ( 'NONE', #129, #128, #127 ) ;
#131 = CIRCLE ( 'NONE', #130, 3.657480314960630500 ) ;
#132 = CARTESIAN_POINT ( 'NONE',  ( -3.202932277332019700, 1.358932922870714500, 0.8722530675037537500 ) ) ;
#133 = DIRECTION ( 'NONE',  ( -1.000000000000000000, 0.0000000000000000000, 0.0000000000000000000 ) ) ;
#134 = DIRECTION ( 'NONE',  ( 0.0000000000000000000, 0.0000000000000000000, -1.000000000000000000 ) ) ;
#135 = CARTESIAN_POINT ( 'NONE',  ( 0.4545480376286105700, 1.358932922870714100, 0.8722530675037537500 ) ) ;
#136 = AXIS2_PLACEMENT_3D ( 'NONE', #135, #134, #133 ) ;
#137 =( CONVERSION_BASED_UNIT ( 'INCH', #138 ) LENGTH_UNIT ( ) NAMED_UNIT ( #139 ) );
#138 = LENGTH_MEASURE_WITH_UNIT ( LENGTH_MEASURE( 0.02539999999999999900 ), #140 );
#139 = DIMENSIONAL_EXPONENTS ( 1.000000000000000000, 0.0000000000000000000, 0.0000000000000000000, 0.0000000000000000000, 0.0000000000000000000, 0.0000000000000000000, 0.0000000000000000000 ) ;
#140 =( LENGTH_UNIT ( ) NAMED_UNIT ( * ) SI_UNIT ( $, .METRE. ) );
#141 = MECHANICAL_DESIGN_GEOMETRIC_PRESENTATION_REPRESENTATION (  '', ( #143 ), #190 ) ;
#142 = PRESENTATION_LAYER_ASSIGNMENT (  '', '', ( #143 ) ) ;
#143 = STYLED_ITEM ( 'NONE', ( #144 ), #32 ) ;
#144 = PRESENTATION_STYLE_ASSIGNMENT (( #145 ) ) ;
#145 = SURFACE_STYLE_USAGE ( .BOTH. , #146 ) ;
#146 = SURFACE_SIDE_STYLE ('',( #147 ) ) ;
#147 = SURFACE_STYLE_FILL_AREA ( #148 ) ;
#148 = FILL_AREA_STYLE ('',( #149 ) ) ;
#149 = FILL_AREA_STYLE_COLOUR ( '', #155 ) ;
#150 = DIRECTION ( 'NONE',  ( 0.0000000000000000000, -1.000000000000000000, 8.850629979473502300E-017 ) ) ;
#151 = DIRECTION ( 'NONE',  ( 0.0000000000000000000, 1.224606353822377300E-016, 1.000000000000000000 ) ) ;
#152 = CARTESIAN_POINT ( 'NONE',  ( -1.982459836387138200, 1.358932922870714100, 0.8722530675037537500 ) ) ;
#153 = AXIS2_PLACEMENT_3D ( 'NONE', #152, #151, #150 ) ;
#154 = CIRCLE ( 'NONE', #153, 1.543307086614173800 ) ;
#155 = COLOUR_RGB ( '',0.7529411764705882200, 0.7529411764705882200, 0.7529411764705882200 ) ;
#156 = CARTESIAN_POINT ( 'NONE',  ( -3.063571098262684300, 1.358932922870714100, 1.872253067503753600 ) ) ;
#157 = DIRECTION ( 'NONE',  ( 1.000000000000000000, 0.0000000000000000000, 0.0000000000000000000 ) ) ;
#158 = VECTOR ( 'NONE', #157, 39.37007874015748100 ) ;
#159 = CARTESIAN_POINT ( 'NONE',  ( -3.202932277332020600, 1.358932922870714100, 1.872253067503753600 ) ) ;
#160 = LINE ( 'NONE', #159, #158 ) ;
#161 = CARTESIAN_POINT ( 'NONE',  ( -3.157958353440021500, 1.358932922870714100, -0.1277469324962464100 ) ) ;
#162 = DIRECTION ( 'NONE',  ( 0.0000000000000000000, 0.0000000000000000000, -1.000000000000000000 ) ) ;
#163 = DIRECTION ( 'NONE',  ( 1.000000000000000000, 0.0000000000000000000, 0.0000000000000000000 ) ) ;
#164 = AXIS2_PLACEMENT_3D ( 'NONE', #171, #163, #162 ) ;
#165 = CIRCLE ( 'NONE', #164, 1.000000000000000200 ) ;
#166 = DIRECTION ( 'NONE',  ( 0.0000000000000000000, 0.0000000000000000000, -1.000000000000000000 ) ) ;
#167 = DIRECTION ( 'NONE',  ( 1.000000000000000000, 0.0000000000000000000, 0.0000000000000000000 ) ) ;
#168 = CARTESIAN_POINT ( 'NONE',  ( -3.202932277332020600, 1.358932922870714100, 0.8722530675037537500 ) ) ;
#169 = AXIS2_PLACEMENT_3D ( 'NONE', #168, #167, #166 ) ;
#170 = CYLINDRICAL_SURFACE ( 'NONE', #169, 1.000000000000000000 ) ;
#171 = CARTESIAN_POINT ( 'NONE',  ( -3.157958353440021500, 1.358932922870714100, 0.8722530675037537500 ) ) ;
#172 = UNCERTAINTY_MEASURE_WITH_UNIT (LENGTH_MEASURE( 1.000000000000000100E-005 ), #175, 'distance_accuracy_value', 'NONE');
#173 =( NAMED_UNIT ( * ) SI_UNIT ( $, .STERADIAN. ) SOLID_ANGLE_UNIT ( ) );
#174 =( NAMED_UNIT ( * ) PLANE_ANGLE_UNIT ( ) SI_UNIT ( $, .RADIAN. ) );
#175 =( CONVERSION_BASED_UNIT ( 'INCH', #176 ) LENGTH_UNIT ( ) NAMED_UNIT ( #177 ) );
#176 = LENGTH_MEASURE_WITH_UNIT ( LENGTH_MEASURE( 0.02539999999999999900 ), #178 );
#177 = DIMENSIONAL_EXPONENTS ( 1.000000000000000000, 0.0000000000000000000, 0.0000000000000000000, 0.0000000000000000000, 0.0000000000000000000, 0.0000000000000000000, 0.0000000000000000000 ) ;
#178 =( LENGTH_UNIT ( ) NAMED_UNIT ( * ) SI_UNIT ( $, .METRE. ) );
#179 = MECHANICAL_DESIGN_GEOMETRIC_PRESENTATION_REPRESENTATION (  '', ( #181 ), #226 ) ;
#180 = PRESENTATION_LAYER_ASSIGNMENT (  '', '', ( #181 ) ) ;
#181 = STYLED_ITEM ( 'NONE', ( #182 ), #33 ) ;
#182 = PRESENTATION_STYLE_ASSIGNMENT (( #183 ) ) ;
#183 = SURFACE_STYLE_USAGE ( .BOTH. , #184 ) ;
#184 = SURFACE_SIDE_STYLE ('',( #185 ) ) ;
#185 = SURFACE_STYLE_FILL_AREA ( #186 ) ;
#186 = FILL_AREA_STYLE ('',( #187 ) ) ;
#187 = FILL_AREA_STYLE_COLOUR ( '', #188 ) ;
#188 = COLOUR_RGB ( '',0.7529411764705882200, 0.7529411764705882200, 0.7529411764705882200 ) ;
#189 = FACE_OUTER_BOUND ( 'NONE', #34, .T. ) ;
#190 =( GEOMETRIC_REPRESENTATION_CONTEXT ( 3 ) GLOBAL_UNCERTAINTY_ASSIGNED_CONTEXT ( ( #191 ) ) GLOBAL_UNIT_ASSIGNED_CONTEXT ( ( #137, #193, #192 ) ) REPRESENTATION_CONTEXT ( 'NONE', 'WORKASPACE' ) );
#191 = UNCERTAINTY_MEASURE_WITH_UNIT (LENGTH_MEASURE( 1.000000000000000100E-005 ), #137, 'distance_accuracy_value', 'NONE');
#192 =( NAMED_UNIT ( * ) SI_UNIT ( $, .STERADIAN. ) SOLID_ANGLE_UNIT ( ) );
#193 =( NAMED_UNIT ( * ) PLANE_ANGLE_UNIT ( ) SI_UNIT ( $, .RADIAN. ) );
#194 = LENGTH_MEASURE_WITH_UNIT ( LENGTH_MEASURE( 0.02539999999999999900 ), #196 );
#195 = DIMENSIONAL_EXPONENTS ( 1.000000000000000000, 0.0000000000000000000, 0.0000000000000000000, 0.0000000000000000000, 0.0000000000000000000, 0.0000000000000000000, 0.0000000000000000000 ) ;
#196 =( LENGTH_UNIT ( ) NAMED_UNIT ( * ) SI_UNIT ( $, .METRE. ) );
#197 = MECHANICAL_DESIGN_GEOMETRIC_PRESENTATION_REPRESENTATION (  '', ( #199 ), #250 ) ;
#198 = PRESENTATION_LAYER_ASSIGNMENT (  '', '', ( #199 ) ) ;
#199 = STYLED_ITEM ( 'NONE', ( #200 ), #55 ) ;
#200 = PRESENTATION_STYLE_ASSIGNMENT (( #201 ) ) ;
#201 = SURFACE_STYLE_USAGE ( .BOTH. , #202 ) ;
#202 = SURFACE_SIDE_STYLE ('',( #203 ) ) ;
#203 = SURFACE_STYLE_FILL_AREA ( #204 ) ;
#204 = FILL_AREA_STYLE ('',( #205 ) ) ;
#205 = FILL_AREA_STYLE_COLOUR ( '', #206 ) ;
#206 = COLOUR_RGB ( '',0.7529411764705882200, 0.7529411764705882200, 0.7529411764705882200 ) ;
#207 = DIRECTION ( 'NONE',  ( 0.0000000000000000000, 0.0000000000000000000, -1.000000000000000000 ) ) ;
#208 = DIRECTION ( 'NONE',  ( 1.000000000000000000, 0.0000000000000000000, 0.0000000000000000000 ) ) ;
#209 = CARTESIAN_POINT ( 'NONE',  ( -3.157958353440021500, 1.358932922870714100, 0.8722530675037537500 ) ) ;
#210 = AXIS2_PLACEMENT_3D ( 'NONE', #209, #208, #207 ) ;
#211 = CIRCLE ( 'NONE', #210, 1.000000000000000200 ) ;
#212 = FACE_OUTER_BOUND ( 'NONE', #56, .T. ) ;
#213 = CARTESIAN_POINT ( 'NONE',  ( -3.157958353440021500, 0.3589329228707139300, 0.8722530675037538600 ) ) ;
#214 = CARTESIAN_POINT ( 'NONE',  ( -3.157958353440021500, 2.358932922870714300, 0.8722530675037537500 ) ) ;
#215 = CARTESIAN_POINT ( 'NONE',  ( -3.525766923001311800, 1.358932922870714100, 0.8722530675037537500 ) ) ;
#216 = DIRECTION ( 'NONE',  ( -1.000000000000000000, 0.0000000000000000000, 0.0000000000000000000 ) ) ;
#217 = DIRECTION ( 'NONE',  ( 0.0000000000000000000, 0.0000000000000000000, -1.000000000000000000 ) ) ;
#218 = CARTESIAN_POINT ( 'NONE',  ( -1.982459836387138200, 1.358932922870714100, 0.8722530675037537500 ) ) ;
#219 = AXIS2_PLACEMENT_3D ( 'NONE', #218, #217, #216 ) ;
#220 = CIRCLE ( 'NONE', #219, 1.543307086614173600 ) ;
#221 = DIRECTION ( 'NONE',  ( 0.0000000000000000000, 1.000000000000000000, 0.0000000000000000000 ) ) ;
#222 = DIRECTION ( 'NONE',  ( 0.0000000000000000000, 0.0000000000000000000, 1.000000000000000000 ) ) ;
#223 = AXIS2_PLACEMENT_3D ( 'NONE', #225, #222, #221 ) ;
#224 = SPHERICAL_SURFACE ( 'NONE', #223, 1.543307086614173800 ) ;
#225 = CARTESIAN_POINT ( 'NONE',  ( -1.982459836387138200, 1.358932922870714100, 0.8722530675037537500 ) ) ;
#226 =( GEOMETRIC_REPRESENTATION_CONTEXT ( 3 ) GLOBAL_UNCERTAINTY_ASSIGNED_CONTEXT ( ( #172 ) ) GLOBAL_UNIT_ASSIGNED_CONTEXT ( ( #175, #174, #173 ) ) REPRESENTATION_CONTEXT ( 'NONE', 'WORKASPACE' ) );
#227 = DIMENSIONAL_EXPONENTS ( 1.000000000000000000, 0.0000000000000000000, 0.0000000000000000000, 0.0000000000000000000, 0.0000000000000000000, 0.0000000000000000000, 0.0000000000000000000 ) ;
#228 =( LENGTH_UNIT ( ) NAMED_UNIT ( * ) SI_UNIT ( $, .METRE. ) );
#229 = MECHANICAL_DESIGN_GEOMETRIC_PRESENTATION_REPRESENTATION (  '', ( #231 ), #276 ) ;
#230 = PRESENTATION_LAYER_ASSIGNMENT (  '', '', ( #231 ) ) ;
#231 = STYLED_ITEM ( 'NONE', ( #232 ), #63 ) ;
#232 = PRESENTATION_STYLE_ASSIGNMENT (( #233 ) ) ;
#233 = SURFACE_STYLE_USAGE ( .BOTH. , #234 ) ;
#234 = SURFACE_SIDE_STYLE ('',( #235 ) ) ;
#235 = SURFACE_STYLE_FILL_AREA ( #236 ) ;
#236 = FILL_AREA_STYLE ('',( #244 ) ) ;
#237 = COLOUR_RGB ( '',0.7529411764705882200, 0.7529411764705882200, 0.7529411764705882200 ) ;
#238 = FACE_OUTER_BOUND ( 'NONE', #64, .T. ) ;
#239 = DIRECTION ( 'NONE',  ( 0.0000000000000000000, 0.0000000000000000000, -1.000000000000000000 ) ) ;
#240 = DIRECTION ( 'NONE',  ( 1.000000000000000000, 0.0000000000000000000, 0.0000000000000000000 ) ) ;
#241 = CARTESIAN_POINT ( 'NONE',  ( -3.063571098262684300, 1.358932922870714100, 0.8722530675037537500 ) ) ;
#242 = AXIS2_PLACEMENT_3D ( 'NONE', #241, #240, #239 ) ;
#243 = CIRCLE ( 'NONE', #242, 1.000000000000000000 ) ;
#244 = FILL_AREA_STYLE_COLOUR ( '', #237 ) ;
#245 = DIRECTION ( 'NONE',  ( 0.0000000000000000000, 1.000000000000000000, 0.0000000000000000000 ) ) ;
#246 = DIRECTION ( 'NONE',  ( 0.0000000000000000000, 0.0000000000000000000, 1.000000000000000000 ) ) ;
#247 = AXIS2_PLACEMENT_3D ( 'NONE', #249, #246, #245 ) ;
#248 = SPHERICAL_SURFACE ( 'NONE', #247, 1.543307086614173800 ) ;
#249 = CARTESIAN_POINT ( 'NONE',  ( -1.982459836387138200, 1.358932922870714100, 0.8722530675037537500 ) ) ;
#250 =( GEOMETRIC_REPRESENTATION_CONTEXT ( 3 ) GLOBAL_UNCERTAINTY_ASSIGNED_CONTEXT ( ( #251 ) ) GLOBAL_UNIT_ASSIGNED_CONTEXT ( ( #254, #253, #252 ) ) REPRESENTATION_CONTEXT ( 'NONE', 'WORKASPACE' ) );
#251 = UNCERTAINTY_MEASURE_WITH_UNIT (LENGTH_MEASURE( 1.000000000000000100E-005 ), #254, 'distance_accuracy_value', 'NONE');
#252 =( NAMED_UNIT ( * ) SI_UNIT ( $, .STERADIAN. ) SOLID_ANGLE_UNIT ( ) );
#253 =( NAMED_UNIT ( * ) PLANE_ANGLE_UNIT ( ) SI_UNIT ( $, .RADIAN. ) );
#254 =( CONVERSION_BASED_UNIT ( 'INCH', #194 ) LENGTH_UNIT ( ) NAMED_UNIT ( #195 ) );
#255 = MECHANICAL_DESIGN_GEOMETRIC_PRESENTATION_REPRESENTATION (  '', ( #257 ), #294 ) ;
#256 = PRESENTATION_LAYER_ASSIGNMENT (  '', '', ( #257 ) ) ;
#257 = STYLED_ITEM ( 'NONE', ( #258 ), #70 ) ;
#258 = PRESENTATION_STYLE_ASSIGNMENT (( #259 ) ) ;
#259 = SURFACE_STYLE_USAGE ( .BOTH. , #260 ) ;
#260 = SURFACE_SIDE_STYLE ('',( #261 ) ) ;
#261 = SURFACE_STYLE_FILL_AREA ( #262 ) ;
#262 = FILL_AREA_STYLE ('',( #270 ) ) ;
#263 = COLOUR_RGB ( '',0.7529411764705882200, 0.7529411764705882200, 0.7529411764705882200 ) ;
#264 = FACE_OUTER_BOUND ( 'NONE', #71, .T. ) ;
#265 = DIRECTION ( 'NONE',  ( 0.0000000000000000000, 0.0000000000000000000, -1.000000000000000000 ) ) ;
#266 = DIRECTION ( 'NONE',  ( 1.000000000000000000, 0.0000000000000000000, 0.0000000000000000000 ) ) ;
#267 = CARTESIAN_POINT ( 'NONE',  ( -3.063571098262684300, 1.358932922870714100, 0.8722530675037537500 ) ) ;
#268 = AXIS2_PLACEMENT_3D ( 'NONE', #267, #266, #265 ) ;
#269 = CIRCLE ( 'NONE', #268, 1.000000000000000000 ) ;
#270 = FILL_AREA_STYLE_COLOUR ( '', #263 ) ;
#271 = DIRECTION ( 'NONE',  ( 0.0000000000000000000, 1.000000000000000000, 0.0000000000000000000 ) ) ;
#272 = DIRECTION ( 'NONE',  ( 0.0000000000000000000, 0.0000000000000000000, 1.000000000000000000 ) ) ;
#273 = AXIS2_PLACEMENT_3D ( 'NONE', #275, #272, #271 ) ;
#274 = SPHERICAL_SURFACE ( 'NONE', #273, 3.657480314960630500 ) ;
#275 = CARTESIAN_POINT ( 'NONE',  ( 0.4545480376286105700, 1.358932922870714100, 0.8722530675037537500 ) ) ;
#276 =( GEOMETRIC_REPRESENTATION_CONTEXT ( 3 ) GLOBAL_UNCERTAINTY_ASSIGNED_CONTEXT ( ( #277 ) ) GLOBAL_UNIT_ASSIGNED_CONTEXT ( ( #280, #279, #278 ) ) REPRESENTATION_CONTEXT ( 'NONE', 'WORKASPACE' ) );
#277 = UNCERTAINTY_MEASURE_WITH_UNIT (LENGTH_MEASURE( 1.000000000000000100E-005 ), #280, 'distance_accuracy_value', 'NONE');
#278 =( NAMED_UNIT ( * ) SI_UNIT ( $, .STERADIAN. ) SOLID_ANGLE_UNIT ( ) );
#279 =( NAMED_UNIT ( * ) PLANE_ANGLE_UNIT ( ) SI_UNIT ( $, .RADIAN. ) );
#280 =( CONVERSION_BASED_UNIT ( 'INCH', #281 ) LENGTH_UNIT ( ) NAMED_UNIT ( #227 ) );
#281 = LENGTH_MEASURE_WITH_UNIT ( LENGTH_MEASURE( 0.02539999999999999900 ), #228 );
#282 = CIRCLE ( 'NONE', #320, 1.000000000000000000 ) ;
#283 = CARTESIAN_POINT ( 'NONE',  ( -3.063571098262684700, 2.358932922870714300, 0.8722530675037537500 ) ) ;
#284 = DIRECTION ( 'NONE',  ( 0.0000000000000000000, 0.0000000000000000000, -1.000000000000000000 ) ) ;
#285 = DIRECTION ( 'NONE',  ( 1.000000000000000000, 0.0000000000000000000, 0.0000000000000000000 ) ) ;
#286 = AXIS2_PLACEMENT_3D ( 'NONE', #292, #285, #284 ) ;
#287 = CIRCLE ( 'NONE', #286, 1.000000000000000000 ) ;
#288 = DIRECTION ( 'NONE',  ( 0.0000000000000000000, 0.0000000000000000000, -1.000000000000000000 ) ) ;
#289 = DIRECTION ( 'NONE',  ( 1.000000000000000000, 0.0000000000000000000, 0.0000000000000000000 ) ) ;
#290 = AXIS2_PLACEMENT_3D ( 'NONE', #293, #289, #288 ) ;
#291 = CYLINDRICAL_SURFACE ( 'NONE', #290, 1.000000000000000000 ) ;
#292 = CARTESIAN_POINT ( 'NONE',  ( -3.063571098262684300, 1.358932922870714100, 0.8722530675037537500 ) ) ;
#293 = CARTESIAN_POINT ( 'NONE',  ( -3.202932277332020600, 1.358932922870714100, 0.8722530675037537500 ) ) ;
#294 =( GEOMETRIC_REPRESENTATION_CONTEXT ( 3 ) GLOBAL_UNCERTAINTY_ASSIGNED_CONTEXT ( ( #295 ) ) GLOBAL_UNIT_ASSIGNED_CONTEXT ( ( #298, #297, #296 ) ) REPRESENTATION_CONTEXT ( 'NONE', 'WORKASPACE' ) );
#295 = UNCERTAINTY_MEASURE_WITH_UNIT (LENGTH_MEASURE( 1.000000000000000100E-005 ), #298, 'distance_accuracy_value', 'NONE');
#296 =( NAMED_UNIT ( * ) SI_UNIT ( $, .STERADIAN. ) SOLID_ANGLE_UNIT ( ) );
#297 =( NAMED_UNIT ( * ) PLANE_ANGLE_UNIT ( ) SI_UNIT ( $, .RADIAN. ) );
#298 =( CONVERSION_BASED_UNIT ( 'INCH', #299 ) LENGTH_UNIT ( ) NAMED_UNIT ( #300 ) );
#299 = LENGTH_MEASURE_WITH_UNIT ( LENGTH_MEASURE( 0.02539999999999999900 ), #301 );
#300 = DIMENSIONAL_EXPONENTS ( 1.000000000000000000, 0.0000000000000000000, 0.0000000000000000000, 0.0000000000000000000, 0.0000000000000000000, 0.0000000000000000000, 0.0000000000000000000 ) ;
#301 =( LENGTH_UNIT ( ) NAMED_UNIT ( * ) SI_UNIT ( $, .METRE. ) );
#302 = ADVANCED_BREP_SHAPE_REPRESENTATION ( '4842-E0W', ( #32, #311 ), #303 ) ;
#303 =( GEOMETRIC_REPRESENTATION_CONTEXT ( 3 ) GLOBAL_UNCERTAINTY_ASSIGNED_CONTEXT ( ( #304 ) ) GLOBAL_UNIT_ASSIGNED_CONTEXT ( ( #307, #306, #305 ) ) REPRESENTATION_CONTEXT ( 'NONE', 'WORKASPACE' ) );
#304 = UNCERTAINTY_MEASURE_WITH_UNIT (LENGTH_MEASURE( 1.000000000000000100E-005 ), #307, 'distance_accuracy_value', 'NONE');
#305 =( NAMED_UNIT ( * ) SI_UNIT ( $, .STERADIAN. ) SOLID_ANGLE_UNIT ( ) );
#306 =( NAMED_UNIT ( * ) PLANE_ANGLE_UNIT ( ) SI_UNIT ( $, .RADIAN. ) );
#307 =( CONVERSION_BASED_UNIT ( 'INCH', #308 ) LENGTH_UNIT ( ) NAMED_UNIT ( #309 ) );
#308 = LENGTH_MEASURE_WITH_UNIT ( LENGTH_MEASURE( 0.02539999999999999900 ), #310 );
#309 = DIMENSIONAL_EXPONENTS ( 1.000000000000000000, 0.0000000000000000000, 0.0000000000000000000, 0.0000000000000000000, 0.0000000000000000000, 0.0000000000000000000, 0.0000000000000000000 ) ;
#310 =( LENGTH_UNIT ( ) NAMED_UNIT ( * ) SI_UNIT ( $, .METRE. ) );
#311 = AXIS2_PLACEMENT_3D ( 'NONE', #331, #330, #329 ) ;
#312 = DIRECTION ( 'NONE',  ( 1.000000000000000000, 0.0000000000000000000, 0.0000000000000000000 ) ) ;
#313 = VECTOR ( 'NONE', #312, 39.37007874015748100 ) ;
#314 = CARTESIAN_POINT ( 'NONE',  ( -3.202932277332020600, 1.358932922870714100, -0.1277469324962462700 ) ) ;
#315 = LINE ( 'NONE', #314, #313 ) ;
#316 = CARTESIAN_POINT ( 'NONE',  ( -3.063571098262684300, 1.358932922870714100, -0.1277469324962462700 ) ) ;
#317 = DIRECTION ( 'NONE',  ( 0.0000000000000000000, 0.0000000000000000000, -1.000000000000000000 ) ) ;
#318 = DIRECTION ( 'NONE',  ( 1.000000000000000000, 0.0000000000000000000, 0.0000000000000000000 ) ) ;
#319 = CARTESIAN_POINT ( 'NONE',  ( -3.063571098262684300, 1.358932922870714100, 0.8722530675037537500 ) ) ;
#320 = AXIS2_PLACEMENT_3D ( 'NONE', #319, #318, #317 ) ;
#321 = PRODUCT_DEFINITION ( 'UNKNOWN', '', #6, #322 ) ;
#322 = PRODUCT_DEFINITION_CONTEXT ( 'detailed design', #324, 'design' ) ;
#323 = APPLICATION_PROTOCOL_DEFINITION ( 'draft international standard', 'automotive_design', 1998, #324 ) ;
#324 = APPLICATION_CONTEXT ( 'automotive_design' ) ;
#325 = PRODUCT ( '4842-E0W', '4842-E0W', '', ( #326 ) ) ;
#326 = PRODUCT_CONTEXT ( 'NONE', #328, 'mechanical' ) ;
#327 = APPLICATION_PROTOCOL_DEFINITION ( 'draft international standard', 'automotive_design', 1998, #328 ) ;
#328 = APPLICATION_CONTEXT ( 'automotive_design' ) ;
#329 = DIRECTION ( 'NONE',  ( 1.000000000000000000, 0.0000000000000000000, 0.0000000000000000000 ) ) ;
#330 = DIRECTION ( 'NONE',  ( 0.0000000000000000000, 0.0000000000000000000, 1.000000000000000000 ) ) ;
#331 = CARTESIAN_POINT ( 'NONE',  ( 0.0000000000000000000, 0.0000000000000000000, 0.0000000000000000000 ) ) ;
ENDSEC;
END-ISO-10303-21;
