ISO-10303-21;
HEADER;
FILE_DESCRIPTION (( 'STEP AP203' ),
    '1' );
FILE_NAME ('Web Model 17164_17174.step',
    '2021-08-09T14:24:32',
    ( '' ),
    ( '' ),
    'SwSTEP 2.0',
    'SolidWorks 2018',
    '' );
FILE_SCHEMA (( 'CONFIG_CONTROL_DESIGN' ));
ENDSEC;

DATA;
#1 = APPROVAL ( #162, 'UNSPECIFIED' ) ;
#2 = CARTESIAN_POINT ( 'NONE',  ( 0.3937007874015748254, 4.821444091131312140E-17, 0.03937007874015747977 ) ) ;
#3 = CARTESIAN_POINT ( 'NONE',  ( 0.000000000000000000, 0.000000000000000000, 0.03937007874015747977 ) ) ;
#4 = CARTESIAN_POINT ( 'NONE',  ( -0.3937007874015748254, 0.000000000000000000, 0.03937007874015747977 ) ) ;
#5 = CARTESIAN_POINT ( 'NONE',  ( 0.3937007874015748254, 4.821444091131312140E-17, 0.000000000000000000 ) ) ;
#6 = APPLICATION_CONTEXT ( 'configuration controlled 3d designs of mechanical parts and assemblies' ) ;
#7 = APPROVAL_ROLE ( '' ) ;
#8 = CIRCLE ( 'NONE', #52, 0.3937007874015748254 ) ;
#9 = CC_DESIGN_PERSON_AND_ORGANIZATION_ASSIGNMENT ( #146, #78, ( #11 ) ) ;
#10 = APPROVAL_STATUS ( 'not_yet_approved' ) ;
#11 = PRODUCT_DEFINITION_FORMATION_WITH_SPECIFIED_SOURCE ( 'ANY', '', #58, .NOT_KNOWN. ) ;
#12 = VERTEX_POINT ( 'NONE', #100 ) ;
#13 = DATE_AND_TIME ( #27, #163 ) ;
#14 = CC_DESIGN_APPROVAL ( #152, ( #95 ) ) ;
#15 = CC_DESIGN_PERSON_AND_ORGANIZATION_ASSIGNMENT ( #109, #56, ( #11 ) ) ;
#16 = CARTESIAN_POINT ( 'NONE',  ( 0.000000000000000000, 0.000000000000000000, 0.03937007874015747977 ) ) ;
#17 = DATE_AND_TIME ( #60, #106 ) ;
#18 = EDGE_CURVE ( 'NONE', #145, #154, #105, .T. ) ;
#19 = DIRECTION ( 'NONE',  ( 0.000000000000000000, 0.000000000000000000, 1.000000000000000000 ) ) ;
#20 =( LENGTH_UNIT ( ) NAMED_UNIT ( * ) SI_UNIT ( $, .METRE. ) );
#21 = LINE ( 'NONE', #74, #130 ) ;
#22 = PERSON_AND_ORGANIZATION_ROLE ( 'creator' ) ;
#23 = PERSON_AND_ORGANIZATION_ROLE ( 'classification_officer' ) ;
#24 = COORDINATED_UNIVERSAL_TIME_OFFSET ( 5, 0, .BEHIND. ) ;
#25 = AXIS2_PLACEMENT_3D ( 'NONE', #3, #89, #62 ) ;
#26 = CC_DESIGN_SECURITY_CLASSIFICATION ( #95, ( #11 ) ) ;
#27 = CALENDAR_DATE ( 2021, 9, 8 ) ;
#28 = PERSON ( 'UNSPECIFIED', 'UNSPECIFIED', 'UNSPECIFIED', ('UNSPECIFIED'), ('UNSPECIFIED'), ('UNSPECIFIED') ) ;
#29 = AXIS2_PLACEMENT_3D ( 'NONE', #75, #19, #86 ) ;
#30 = LENGTH_MEASURE_WITH_UNIT ( LENGTH_MEASURE( 0.02539999999999999897 ), #20 );
#31 = CLOSED_SHELL ( 'NONE', ( #42, #45, #150, #83 ) ) ;
#32 = PLANE ( 'NONE',  #25 ) ;
#33 = APPLICATION_PROTOCOL_DEFINITION ( 'international standard', 'config_control_design', 1994, #6 ) ;
#34 = EDGE_LOOP ( 'NONE', ( #67, #44 ) ) ;
#35 = DATE_TIME_ROLE ( 'creation_date' ) ;
#36 = CIRCLE ( 'NONE', #104, 0.3937007874015748254 ) ;
#37 = LOCAL_TIME ( 10, 24, 32.00000000000000000, #88 ) ;
#38 = PRODUCT_RELATED_PRODUCT_CATEGORY ( 'detail', '', ( #58 ) ) ;
#39 = EDGE_LOOP ( 'NONE', ( #79, #96, #136, #119 ) ) ;
#40 = PERSON_AND_ORGANIZATION ( #28, #41 ) ;
#41 = ORGANIZATION ( 'UNSPECIFIED', 'UNSPECIFIED', '' ) ;
#42 = ADVANCED_FACE ( 'NONE', ( #71 ), #59, .T. ) ;
#43 = CC_DESIGN_DATE_AND_TIME_ASSIGNMENT ( #57, #174, ( #95 ) ) ;
#44 = ORIENTED_EDGE ( 'NONE', *, *, #18, .T. ) ;
#45 = ADVANCED_FACE ( 'NONE', ( #129 ), #70, .T. ) ;
#46 = DIRECTION ( 'NONE',  ( 1.000000000000000000, 0.000000000000000000, -0.000000000000000000 ) ) ;
#47 = ORIENTED_EDGE ( 'NONE', *, *, #61, .T. ) ;
#48 = APPROVAL_DATE_TIME ( #131, #149 ) ;
#49 = DESIGN_CONTEXT ( 'detailed design', #173, 'design' ) ;
#50 = DIRECTION ( 'NONE',  ( 0.000000000000000000, 0.000000000000000000, 1.000000000000000000 ) ) ;
#52 = AXIS2_PLACEMENT_3D ( 'NONE', #141, #115, #85 ) ;
#51 = PERSON_AND_ORGANIZATION ( #28, #41 ) ;
#53 = APPLICATION_PROTOCOL_DEFINITION ( 'international standard', 'config_control_design', 1994, #173 ) ;
#54 = ORIENTED_EDGE ( 'NONE', *, *, #117, .F. ) ;
#55 = DATE_AND_TIME ( #94, #84 ) ;
#56 = PERSON_AND_ORGANIZATION_ROLE ( 'design_supplier' ) ;
#57 = DATE_AND_TIME ( #140, #37 ) ;
#58 = PRODUCT ( 'Web Model 17164_17174', 'Web Model 17164_17174', '', ( #161 ) ) ;
#59 = CYLINDRICAL_SURFACE ( 'NONE', #65, 0.3937007874015748254 ) ;
#60 = CALENDAR_DATE ( 2021, 9, 8 ) ;
#61 = EDGE_CURVE ( 'NONE', #154, #12, #111, .T. ) ;
#62 = DIRECTION ( 'NONE',  ( 1.000000000000000000, 0.000000000000000000, -0.000000000000000000 ) ) ;
#63 = DIRECTION ( 'NONE',  ( 1.000000000000000000, 0.000000000000000000, 0.000000000000000000 ) ) ;
#64 =( CONVERSION_BASED_UNIT ( 'INCH', #30 ) LENGTH_UNIT ( ) NAMED_UNIT ( #159 ) );
#65 = AXIS2_PLACEMENT_3D ( 'NONE', #16, #157, #171 ) ;
#66 = ORIENTED_EDGE ( 'NONE', *, *, #165, .T. ) ;
#67 = ORIENTED_EDGE ( 'NONE', *, *, #160, .T. ) ;
#68 = APPROVAL_PERSON_ORGANIZATION ( #51, #1, #7 ) ;
#69 = CC_DESIGN_DATE_AND_TIME_ASSIGNMENT ( #17, #35, ( #153 ) ) ;
#70 = CYLINDRICAL_SURFACE ( 'NONE', #93, 0.3937007874015748254 ) ;
#71 = FACE_OUTER_BOUND ( 'NONE', #39, .T. ) ;
#72 = ORIENTED_EDGE ( 'NONE', *, *, #177, .F. ) ;
#73 = LOCAL_TIME ( 10, 24, 32.00000000000000000, #24 ) ;
#74 = CARTESIAN_POINT ( 'NONE',  ( 0.3937007874015748254, 4.821444091131312140E-17, 0.03937007874015747977 ) ) ;
#75 = CARTESIAN_POINT ( 'NONE',  ( 0.000000000000000000, 0.000000000000000000, 0.000000000000000000 ) ) ;
#76 =( NAMED_UNIT ( * ) SI_UNIT ( $, .STERADIAN. ) SOLID_ANGLE_UNIT ( ) );
#77 = VECTOR ( 'NONE', #87, 39.37007874015748143 ) ;
#78 = PERSON_AND_ORGANIZATION_ROLE ( 'creator' ) ;
#79 = ORIENTED_EDGE ( 'NONE', *, *, #18, .F. ) ;
#80 = APPROVAL_DATE_TIME ( #13, #1 ) ;
#81 = AXIS2_PLACEMENT_3D ( 'NONE', #156, #124, #46 ) ;
#82 = CALENDAR_DATE ( 2021, 9, 8 ) ;
#83 = ADVANCED_FACE ( 'NONE', ( #178 ), #123, .F. ) ;
#84 = LOCAL_TIME ( 10, 24, 32.00000000000000000, #120 ) ;
#85 = DIRECTION ( 'NONE',  ( 1.000000000000000000, 0.000000000000000000, 0.000000000000000000 ) ) ;
#86 = DIRECTION ( 'NONE',  ( 1.000000000000000000, 0.000000000000000000, 0.000000000000000000 ) ) ;
#87 = DIRECTION ( 'NONE',  ( -0.000000000000000000, -0.000000000000000000, -1.000000000000000000 ) ) ;
#88 = COORDINATED_UNIVERSAL_TIME_OFFSET ( 5, 0, .BEHIND. ) ;
#89 = DIRECTION ( 'NONE',  ( 0.000000000000000000, 0.000000000000000000, 1.000000000000000000 ) ) ;
#90 = DIRECTION ( 'NONE',  ( -1.000000000000000000, 0.000000000000000000, 0.000000000000000000 ) ) ;
#91 = CIRCLE ( 'NONE', #29, 0.3937007874015748254 ) ;
#92 = PERSON_AND_ORGANIZATION ( #28, #41 ) ;
#93 = AXIS2_PLACEMENT_3D ( 'NONE', #98, #126, #90 ) ;
#94 = CALENDAR_DATE ( 2021, 9, 8 ) ;
#95 = SECURITY_CLASSIFICATION ( '', '', #164 ) ;
#96 = ORIENTED_EDGE ( 'NONE', *, *, #117, .T. ) ;
#97 = CC_DESIGN_PERSON_AND_ORGANIZATION_ASSIGNMENT ( #135, #147, ( #58 ) ) ;
#98 = CARTESIAN_POINT ( 'NONE',  ( 0.000000000000000000, 0.000000000000000000, 0.03937007874015747977 ) ) ;
#99 = CARTESIAN_POINT ( 'NONE',  ( 0.000000000000000000, 0.000000000000000000, 0.000000000000000000 ) ) ;
#100 = CARTESIAN_POINT ( 'NONE',  ( -0.3937007874015748254, 0.000000000000000000, 0.000000000000000000 ) ) ;
#101 = DIRECTION ( 'NONE',  ( 1.000000000000000000, 0.000000000000000000, 0.000000000000000000 ) ) ;
#102 = DIRECTION ( 'NONE',  ( 0.000000000000000000, 0.000000000000000000, 1.000000000000000000 ) ) ;
#103 = FACE_OUTER_BOUND ( 'NONE', #34, .T. ) ;
#104 = AXIS2_PLACEMENT_3D ( 'NONE', #99, #116, #101 ) ;
#105 = CIRCLE ( 'NONE', #167, 0.3937007874015748254 ) ;
#106 = LOCAL_TIME ( 10, 24, 32.00000000000000000, #110 ) ;
#107 = APPROVAL_ROLE ( '' ) ;
#108 = CC_DESIGN_PERSON_AND_ORGANIZATION_ASSIGNMENT ( #148, #22, ( #153 ) ) ;
#109 = PERSON_AND_ORGANIZATION ( #28, #41 ) ;
#110 = COORDINATED_UNIVERSAL_TIME_OFFSET ( 5, 0, .BEHIND. ) ;
#111 = LINE ( 'NONE', #169, #77 ) ;
#112 = PRODUCT_DEFINITION_SHAPE ( 'NONE', 'NONE',  #153 ) ;
#113 = COORDINATED_UNIVERSAL_TIME_OFFSET ( 5, 0, .BEHIND. ) ;
#114 = DIRECTION ( 'NONE',  ( -0.000000000000000000, -0.000000000000000000, -1.000000000000000000 ) ) ;
#115 = DIRECTION ( 'NONE',  ( 0.000000000000000000, 0.000000000000000000, 1.000000000000000000 ) ) ;
#116 = DIRECTION ( 'NONE',  ( 0.000000000000000000, 0.000000000000000000, 1.000000000000000000 ) ) ;
#117 = EDGE_CURVE ( 'NONE', #145, #121, #21, .T. ) ;
#118 = APPROVAL_STATUS ( 'not_yet_approved' ) ;
#119 = ORIENTED_EDGE ( 'NONE', *, *, #61, .F. ) ;
#120 = COORDINATED_UNIVERSAL_TIME_OFFSET ( 5, 0, .BEHIND. ) ;
#121 = VERTEX_POINT ( 'NONE', #5 ) ;
#122 = APPROVAL_PERSON_ORGANIZATION ( #170, #152, #107 ) ;
#123 = PLANE ( 'NONE',  #81 ) ;
#124 = DIRECTION ( 'NONE',  ( 0.000000000000000000, 0.000000000000000000, 1.000000000000000000 ) ) ;
#125 = APPROVAL_DATE_TIME ( #55, #152 ) ;
#126 = DIRECTION ( 'NONE',  ( -0.000000000000000000, -0.000000000000000000, -1.000000000000000000 ) ) ;
#127 = DIRECTION ( 'NONE',  ( 1.000000000000000000, 0.000000000000000000, 0.000000000000000000 ) ) ;
#128 = MANIFOLD_SOLID_BREP ( 'Boss-Extrude1', #31 ) ;
#129 = FACE_OUTER_BOUND ( 'NONE', #175, .T. ) ;
#130 = VECTOR ( 'NONE', #114, 39.37007874015748143 ) ;
#131 = DATE_AND_TIME ( #82, #73 ) ;
#132 = EDGE_LOOP ( 'NONE', ( #139, #72 ) ) ;
#133 = AXIS2_PLACEMENT_3D ( 'NONE', #137, #50, #127 ) ;
#134 = UNCERTAINTY_MEASURE_WITH_UNIT (LENGTH_MEASURE( 1.000000000000000082E-05 ), #64, 'distance_accuracy_value', 'NONE');
#135 = PERSON_AND_ORGANIZATION ( #28, #41 ) ;
#136 = ORIENTED_EDGE ( 'NONE', *, *, #177, .T. ) ;
#137 = CARTESIAN_POINT ( 'NONE',  ( 0.000000000000000000, 0.000000000000000000, 0.000000000000000000 ) ) ;
#138 =( GEOMETRIC_REPRESENTATION_CONTEXT ( 3 ) GLOBAL_UNCERTAINTY_ASSIGNED_CONTEXT ( ( #134 ) ) GLOBAL_UNIT_ASSIGNED_CONTEXT ( ( #64, #158, #76 ) ) REPRESENTATION_CONTEXT ( 'NONE', 'WORKASPACE' ) );
#139 = ORIENTED_EDGE ( 'NONE', *, *, #165, .F. ) ;
#140 = CALENDAR_DATE ( 2021, 9, 8 ) ;
#141 = CARTESIAN_POINT ( 'NONE',  ( 0.000000000000000000, 0.000000000000000000, 0.03937007874015747977 ) ) ;
#142 = CC_DESIGN_PERSON_AND_ORGANIZATION_ASSIGNMENT ( #92, #23, ( #95 ) ) ;
#143 = CC_DESIGN_APPROVAL ( #1, ( #153 ) ) ;
#144 = APPROVAL_ROLE ( '' ) ;
#145 = VERTEX_POINT ( 'NONE', #2 ) ;
#146 = PERSON_AND_ORGANIZATION ( #28, #41 ) ;
#147 = PERSON_AND_ORGANIZATION_ROLE ( 'design_owner' ) ;
#148 = PERSON_AND_ORGANIZATION ( #28, #41 ) ;
#149 = APPROVAL ( #118, 'UNSPECIFIED' ) ;
#150 = ADVANCED_FACE ( 'NONE', ( #103 ), #32, .T. ) ;
#151 = ADVANCED_BREP_SHAPE_REPRESENTATION ( 'Web Model 17164_17174', ( #128, #133 ), #138 ) ;
#152 = APPROVAL ( #10, 'UNSPECIFIED' ) ;
#153 = PRODUCT_DEFINITION ( 'UNKNOWN', '', #11, #49 ) ;
#154 = VERTEX_POINT ( 'NONE', #4 ) ;
#155 = SHAPE_DEFINITION_REPRESENTATION ( #112, #151 ) ;
#156 = CARTESIAN_POINT ( 'NONE',  ( 0.000000000000000000, 0.000000000000000000, 0.000000000000000000 ) ) ;
#157 = DIRECTION ( 'NONE',  ( -0.000000000000000000, -0.000000000000000000, -1.000000000000000000 ) ) ;
#158 =( NAMED_UNIT ( * ) PLANE_ANGLE_UNIT ( ) SI_UNIT ( $, .RADIAN. ) );
#159 = DIMENSIONAL_EXPONENTS ( 1.000000000000000000, 0.000000000000000000, 0.000000000000000000, 0.000000000000000000, 0.000000000000000000, 0.000000000000000000, 0.000000000000000000 ) ;
#160 = EDGE_CURVE ( 'NONE', #154, #145, #8, .T. ) ;
#161 = MECHANICAL_CONTEXT ( 'NONE', #6, 'mechanical' ) ;
#162 = APPROVAL_STATUS ( 'not_yet_approved' ) ;
#163 = LOCAL_TIME ( 10, 24, 32.00000000000000000, #113 ) ;
#164 = SECURITY_CLASSIFICATION_LEVEL ( 'unclassified' ) ;
#165 = EDGE_CURVE ( 'NONE', #12, #121, #91, .T. ) ;
#166 = APPROVAL_PERSON_ORGANIZATION ( #40, #149, #144 ) ;
#167 = AXIS2_PLACEMENT_3D ( 'NONE', #172, #102, #63 ) ;
#168 = CC_DESIGN_APPROVAL ( #149, ( #11 ) ) ;
#169 = CARTESIAN_POINT ( 'NONE',  ( -0.3937007874015748254, 0.000000000000000000, 0.03937007874015747977 ) ) ;
#170 = PERSON_AND_ORGANIZATION ( #28, #41 ) ;
#171 = DIRECTION ( 'NONE',  ( -1.000000000000000000, 0.000000000000000000, 0.000000000000000000 ) ) ;
#172 = CARTESIAN_POINT ( 'NONE',  ( 0.000000000000000000, 0.000000000000000000, 0.03937007874015747977 ) ) ;
#173 = APPLICATION_CONTEXT ( 'configuration controlled 3d designs of mechanical parts and assemblies' ) ;
#174 = DATE_TIME_ROLE ( 'classification_date' ) ;
#175 = EDGE_LOOP ( 'NONE', ( #54, #176, #47, #66 ) ) ;
#176 = ORIENTED_EDGE ( 'NONE', *, *, #160, .F. ) ;
#177 = EDGE_CURVE ( 'NONE', #121, #12, #36, .T. ) ;
#178 = FACE_OUTER_BOUND ( 'NONE', #132, .T. ) ;
ENDSEC;
END-ISO-10303-21;
