ISO-10303-21;
HEADER;
FILE_DESCRIPTION (( 'STEP AP203' ),
    '1' );
FILE_NAME ('Web Model 37688_37718.step',
    '2018-08-03T18:40:53',
    ( '' ),
    ( '' ),
    'SwSTEP 2.0',
    'SolidWorks 2016',
    '' );
FILE_SCHEMA (( 'CONFIG_CONTROL_DESIGN' ));
ENDSEC;

DATA;
#1 = ORIENTED_EDGE ( 'NONE', *, *, #114, .F. ) ;
#2 = CIRCLE ( 'NONE', #81, 6.349999999999999600 ) ;
#3 = FACE_OUTER_BOUND ( 'NONE', #143, .T. ) ;
#4 = CYLINDRICAL_SURFACE ( 'NONE', #90, 6.349999999999999600 ) ;
#5 = AXIS2_PLACEMENT_3D ( 'NONE', #46, #158, #131 ) ;
#6 = PERSON_AND_ORGANIZATION_ROLE ( 'design_owner' ) ;
#7 = ORIENTED_EDGE ( 'NONE', *, *, #85, .F. ) ;
#8 = CARTESIAN_POINT ( 'NONE',  ( 0.0000000000000000000, 0.0000000000000000000, -3.174999999999999800 ) ) ;
#9 = APPLICATION_PROTOCOL_DEFINITION ( 'international standard', 'config_control_design', 1994, #172 ) ;
#10 = VERTEX_POINT ( 'NONE', #155 ) ;
#11 = PERSON_AND_ORGANIZATION ( #33, #48 ) ;
#12 = PERSON_AND_ORGANIZATION ( #33, #48 ) ;
#13 = COORDINATED_UNIVERSAL_TIME_OFFSET ( 5, 0, .BEHIND. ) ;
#14 = CARTESIAN_POINT ( 'NONE',  ( 0.0000000000000000000, 0.0000000000000000000, 3.174999999999999800 ) ) ;
#15 = CC_DESIGN_PERSON_AND_ORGANIZATION_ASSIGNMENT ( #119, #34, ( #152 ) ) ;
#16 = CARTESIAN_POINT ( 'NONE',  ( 0.0000000000000000000, 0.0000000000000000000, 3.174999999999999800 ) ) ;
#17 = LINE ( 'NONE', #92, #121 ) ;
#18 = APPROVAL_DATE_TIME ( #69, #135 ) ;
#19 = APPROVAL_ROLE ( '' ) ;
#20 = APPROVAL ( #160, 'UNSPECIFIED' ) ;
#21 = PERSON_AND_ORGANIZATION_ROLE ( 'creator' ) ;
#22 = ADVANCED_FACE ( 'NONE', ( #89 ), #107, .T. ) ;
#23 = ORIENTED_EDGE ( 'NONE', *, *, #114, .T. ) ;
#24 = DATE_TIME_ROLE ( 'creation_date' ) ;
#25 = PRODUCT ( 'Web Model 37688_37718', 'Web Model 37688_37718', '', ( #39 ) ) ;
#26 = CALENDAR_DATE ( 2018, 3, 8 ) ;
#27 = CIRCLE ( 'NONE', #122, 6.349999999999999600 ) ;
#28 = CARTESIAN_POINT ( 'NONE',  ( -6.349999999999999600, 0.0000000000000000000, 3.174999999999999800 ) ) ;
#29 = CARTESIAN_POINT ( 'NONE',  ( 6.349999999999999600, 7.776507174585692200E-016, 3.174999999999999800 ) ) ;
#30 = DIRECTION ( 'NONE',  ( -0.0000000000000000000, -0.0000000000000000000, -1.000000000000000000 ) ) ;
#31 = PERSON_AND_ORGANIZATION ( #33, #48 ) ;
#32 = DIRECTION ( 'NONE',  ( -1.000000000000000000, 0.0000000000000000000, 0.0000000000000000000 ) ) ;
#33 = PERSON ( 'UNSPECIFIED', 'UNSPECIFIED', 'UNSPECIFIED', ('UNSPECIFIED'), ('UNSPECIFIED'), ('UNSPECIFIED') ) ;
#34 = PERSON_AND_ORGANIZATION_ROLE ( 'design_supplier' ) ;
#35 = COORDINATED_UNIVERSAL_TIME_OFFSET ( 5, 0, .BEHIND. ) ;
#36 = ADVANCED_FACE ( 'NONE', ( #55 ), #4, .T. ) ;
#37 = DATE_TIME_ROLE ( 'classification_date' ) ;
#38 = AXIS2_PLACEMENT_3D ( 'NONE', #139, #65, #140 ) ;
#39 = MECHANICAL_CONTEXT ( 'NONE', #100, 'mechanical' ) ;
#40 = CC_DESIGN_PERSON_AND_ORGANIZATION_ASSIGNMENT ( #31, #112, ( #44 ) ) ;
#41 = EDGE_LOOP ( 'NONE', ( #67, #116, #102, #23 ) ) ;
#42 = ORIENTED_EDGE ( 'NONE', *, *, #129, .T. ) ;
#43 = PERSON_AND_ORGANIZATION ( #33, #48 ) ;
#44 = PRODUCT_DEFINITION ( 'UNKNOWN', '', #152, #123 ) ;
#45 = AXIS2_PLACEMENT_3D ( 'NONE', #124, #73, #91 ) ;
#46 = CARTESIAN_POINT ( 'NONE',  ( 0.0000000000000000000, 0.0000000000000000000, 0.0000000000000000000 ) ) ;
#47 = APPROVAL_DATE_TIME ( #115, #20 ) ;
#48 = ORGANIZATION ( 'UNSPECIFIED', 'UNSPECIFIED', '' ) ;
#49 = DIRECTION ( 'NONE',  ( 1.000000000000000000, 0.0000000000000000000, -0.0000000000000000000 ) ) ;
#50 = APPROVAL_ROLE ( '' ) ;
#51 = VERTEX_POINT ( 'NONE', #28 ) ;
#52 = PERSON_AND_ORGANIZATION ( #33, #48 ) ;
#53 = DATE_AND_TIME ( #171, #93 ) ;
#54 = CARTESIAN_POINT ( 'NONE',  ( 6.349999999999999600, 7.776507174585692200E-016, 3.174999999999999800 ) ) ;
#55 = FACE_OUTER_BOUND ( 'NONE', #59, .T. ) ;
#56 = CARTESIAN_POINT ( 'NONE',  ( 0.0000000000000000000, 0.0000000000000000000, -3.174999999999999800 ) ) ;
#57 = PRODUCT_DEFINITION_SHAPE ( 'NONE', 'NONE',  #44 ) ;
#58 = EDGE_CURVE ( 'NONE', #51, #104, #17, .T. ) ;
#59 = EDGE_LOOP ( 'NONE', ( #7, #167, #42, #130 ) ) ;
#60 = PERSON_AND_ORGANIZATION ( #33, #48 ) ;
#61 = FACE_OUTER_BOUND ( 'NONE', #41, .T. ) ;
#62 = EDGE_CURVE ( 'NONE', #51, #66, #98, .T. ) ;
#63 = APPLICATION_PROTOCOL_DEFINITION ( 'international standard', 'config_control_design', 1994, #100 ) ;
#64 = DIRECTION ( 'NONE',  ( 0.0000000000000000000, 0.0000000000000000000, 1.000000000000000000 ) ) ;
#65 = DIRECTION ( 'NONE',  ( 0.0000000000000000000, 0.0000000000000000000, 1.000000000000000000 ) ) ;
#66 = VERTEX_POINT ( 'NONE', #29 ) ;
#67 = ORIENTED_EDGE ( 'NONE', *, *, #118, .F. ) ;
#68 = AXIS2_PLACEMENT_3D ( 'NONE', #74, #161, #49 ) ;
#69 = DATE_AND_TIME ( #82, #86 ) ;
#70 = ORIENTED_EDGE ( 'NONE', *, *, #62, .T. ) ;
#71 = CARTESIAN_POINT ( 'NONE',  ( -6.349999999999999600, 0.0000000000000000000, -3.174999999999999800 ) ) ;
#72 = DIRECTION ( 'NONE',  ( 1.000000000000000000, 0.0000000000000000000, -0.0000000000000000000 ) ) ;
#73 = DIRECTION ( 'NONE',  ( -0.0000000000000000000, -0.0000000000000000000, -1.000000000000000000 ) ) ;
#74 = CARTESIAN_POINT ( 'NONE',  ( 0.0000000000000000000, 0.0000000000000000000, -3.174999999999999800 ) ) ;
#75 = APPROVAL_DATE_TIME ( #132, #175 ) ;
#76 = PLANE ( 'NONE',  #68 ) ;
#77 = DIRECTION ( 'NONE',  ( 0.0000000000000000000, 0.0000000000000000000, 1.000000000000000000 ) ) ;
#78 = ADVANCED_FACE ( 'NONE', ( #61 ), #84, .T. ) ;
#79 = APPROVAL_STATUS ( 'not_yet_approved' ) ;
#80 = CIRCLE ( 'NONE', #38, 6.349999999999999600 ) ;
#81 = AXIS2_PLACEMENT_3D ( 'NONE', #56, #77, #99 ) ;
#82 = CALENDAR_DATE ( 2018, 3, 8 ) ;
#83 = PERSON_AND_ORGANIZATION ( #33, #48 ) ;
#84 = CYLINDRICAL_SURFACE ( 'NONE', #45, 6.349999999999999600 ) ;
#85 = EDGE_CURVE ( 'NONE', #66, #51, #80, .T. ) ;
#86 = LOCAL_TIME ( 14, 40, 53.00000000000000000, #133 ) ;
#87 = CC_DESIGN_APPROVAL ( #175, ( #44 ) ) ;
#88 = MANIFOLD_SOLID_BREP ( 'Boss-Extrude1', #164 ) ;
#89 = FACE_OUTER_BOUND ( 'NONE', #106, .T. ) ;
#90 = AXIS2_PLACEMENT_3D ( 'NONE', #154, #30, #32 ) ;
#91 = DIRECTION ( 'NONE',  ( -1.000000000000000000, 0.0000000000000000000, 0.0000000000000000000 ) ) ;
#92 = CARTESIAN_POINT ( 'NONE',  ( -6.349999999999999600, 0.0000000000000000000, 3.174999999999999800 ) ) ;
#93 = LOCAL_TIME ( 14, 40, 53.00000000000000000, #13 ) ;
#94 = LOCAL_TIME ( 14, 40, 53.00000000000000000, #174 ) ;
#95 = APPROVAL_STATUS ( 'not_yet_approved' ) ;
#96 = DIRECTION ( 'NONE',  ( -0.0000000000000000000, -0.0000000000000000000, -1.000000000000000000 ) ) ;
#97 = CC_DESIGN_PERSON_AND_ORGANIZATION_ASSIGNMENT ( #43, #21, ( #152 ) ) ;
#98 = CIRCLE ( 'NONE', #145, 6.349999999999999600 ) ;
#99 = DIRECTION ( 'NONE',  ( 1.000000000000000000, 0.0000000000000000000, 0.0000000000000000000 ) ) ;
#100 = APPLICATION_CONTEXT ( 'configuration controlled 3d designs of mechanical parts and assemblies' ) ;
#101 = CC_DESIGN_PERSON_AND_ORGANIZATION_ASSIGNMENT ( #12, #6, ( #25 ) ) ;
#102 = ORIENTED_EDGE ( 'NONE', *, *, #58, .T. ) ;
#103 = CC_DESIGN_SECURITY_CLASSIFICATION ( #144, ( #152 ) ) ;
#104 = VERTEX_POINT ( 'NONE', #71 ) ;
#105 = DIRECTION ( 'NONE',  ( 0.0000000000000000000, 0.0000000000000000000, 1.000000000000000000 ) ) ;
#106 = EDGE_LOOP ( 'NONE', ( #70, #151 ) ) ;
#107 = PLANE ( 'NONE',  #168 ) ;
#108 = DIRECTION ( 'NONE',  ( 0.0000000000000000000, 0.0000000000000000000, 1.000000000000000000 ) ) ;
#109 =( LENGTH_UNIT ( ) NAMED_UNIT ( * ) SI_UNIT ( .MILLI., .METRE. ) );
#110 = CC_DESIGN_DATE_AND_TIME_ASSIGNMENT ( #170, #24, ( #44 ) ) ;
#111 = APPROVAL_PERSON_ORGANIZATION ( #60, #175, #141 ) ;
#112 = PERSON_AND_ORGANIZATION_ROLE ( 'creator' ) ;
#113 = SECURITY_CLASSIFICATION_LEVEL ( 'unclassified' ) ;
#114 = EDGE_CURVE ( 'NONE', #104, #10, #27, .T. ) ;
#115 = DATE_AND_TIME ( #147, #117 ) ;
#116 = ORIENTED_EDGE ( 'NONE', *, *, #62, .F. ) ;
#117 = LOCAL_TIME ( 14, 40, 53.00000000000000000, #157 ) ;
#118 = EDGE_CURVE ( 'NONE', #66, #10, #137, .T. ) ;
#119 = PERSON_AND_ORGANIZATION ( #33, #48 ) ;
#120 = PRODUCT_RELATED_PRODUCT_CATEGORY ( 'detail', '', ( #25 ) ) ;
#121 = VECTOR ( 'NONE', #149, 1000.000000000000000 ) ;
#122 = AXIS2_PLACEMENT_3D ( 'NONE', #8, #64, #173 ) ;
#123 = DESIGN_CONTEXT ( 'detailed design', #172, 'design' ) ;
#124 = CARTESIAN_POINT ( 'NONE',  ( 0.0000000000000000000, 0.0000000000000000000, 3.174999999999999800 ) ) ;
#125 = CALENDAR_DATE ( 2018, 3, 8 ) ;
#126 = APPROVAL_PERSON_ORGANIZATION ( #11, #135, #19 ) ;
#127 = PERSON_AND_ORGANIZATION_ROLE ( 'classification_officer' ) ;
#128 =( NAMED_UNIT ( * ) SI_UNIT ( $, .STERADIAN. ) SOLID_ANGLE_UNIT ( ) );
#129 = EDGE_CURVE ( 'NONE', #10, #104, #2, .T. ) ;
#130 = ORIENTED_EDGE ( 'NONE', *, *, #58, .F. ) ;
#131 = DIRECTION ( 'NONE',  ( 1.000000000000000000, 0.0000000000000000000, 0.0000000000000000000 ) ) ;
#132 = DATE_AND_TIME ( #26, #166 ) ;
#133 = COORDINATED_UNIVERSAL_TIME_OFFSET ( 5, 0, .BEHIND. ) ;
#134 = CC_DESIGN_APPROVAL ( #135, ( #152 ) ) ;
#135 = APPROVAL ( #95, 'UNSPECIFIED' ) ;
#136 = SHAPE_DEFINITION_REPRESENTATION ( #57, #148 ) ;
#137 = LINE ( 'NONE', #54, #142 ) ;
#138 = UNCERTAINTY_MEASURE_WITH_UNIT (LENGTH_MEASURE( 1.000000000000000100E-005 ), #109, 'distance_accuracy_value', 'NONE');
#139 = CARTESIAN_POINT ( 'NONE',  ( 0.0000000000000000000, 0.0000000000000000000, 3.174999999999999800 ) ) ;
#140 = DIRECTION ( 'NONE',  ( 1.000000000000000000, 0.0000000000000000000, 0.0000000000000000000 ) ) ;
#141 = APPROVAL_ROLE ( '' ) ;
#142 = VECTOR ( 'NONE', #96, 1000.000000000000000 ) ;
#143 = EDGE_LOOP ( 'NONE', ( #1, #146 ) ) ;
#144 = SECURITY_CLASSIFICATION ( '', '', #113 ) ;
#145 = AXIS2_PLACEMENT_3D ( 'NONE', #16, #105, #150 ) ;
#146 = ORIENTED_EDGE ( 'NONE', *, *, #129, .F. ) ;
#147 = CALENDAR_DATE ( 2018, 3, 8 ) ;
#148 = ADVANCED_BREP_SHAPE_REPRESENTATION ( 'Web Model 37688_37718', ( #88, #5 ), #153 ) ;
#149 = DIRECTION ( 'NONE',  ( -0.0000000000000000000, -0.0000000000000000000, -1.000000000000000000 ) ) ;
#150 = DIRECTION ( 'NONE',  ( 1.000000000000000000, 0.0000000000000000000, 0.0000000000000000000 ) ) ;
#151 = ORIENTED_EDGE ( 'NONE', *, *, #85, .T. ) ;
#152 = PRODUCT_DEFINITION_FORMATION_WITH_SPECIFIED_SOURCE ( 'ANY', '', #25, .NOT_KNOWN. ) ;
#153 =( GEOMETRIC_REPRESENTATION_CONTEXT ( 3 ) GLOBAL_UNCERTAINTY_ASSIGNED_CONTEXT ( ( #138 ) ) GLOBAL_UNIT_ASSIGNED_CONTEXT ( ( #109, #163, #128 ) ) REPRESENTATION_CONTEXT ( 'NONE', 'WORKASPACE' ) );
#154 = CARTESIAN_POINT ( 'NONE',  ( 0.0000000000000000000, 0.0000000000000000000, 3.174999999999999800 ) ) ;
#155 = CARTESIAN_POINT ( 'NONE',  ( 6.349999999999999600, 7.776507174585692200E-016, -3.174999999999999800 ) ) ;
#156 = CC_DESIGN_PERSON_AND_ORGANIZATION_ASSIGNMENT ( #83, #127, ( #144 ) ) ;
#157 = COORDINATED_UNIVERSAL_TIME_OFFSET ( 5, 0, .BEHIND. ) ;
#158 = DIRECTION ( 'NONE',  ( 0.0000000000000000000, 0.0000000000000000000, 1.000000000000000000 ) ) ;
#159 = APPROVAL_PERSON_ORGANIZATION ( #52, #20, #50 ) ;
#160 = APPROVAL_STATUS ( 'not_yet_approved' ) ;
#161 = DIRECTION ( 'NONE',  ( 0.0000000000000000000, 0.0000000000000000000, 1.000000000000000000 ) ) ;
#162 = CC_DESIGN_DATE_AND_TIME_ASSIGNMENT ( #53, #37, ( #144 ) ) ;
#163 =( NAMED_UNIT ( * ) PLANE_ANGLE_UNIT ( ) SI_UNIT ( $, .RADIAN. ) );
#164 = CLOSED_SHELL ( 'NONE', ( #36, #78, #22, #169 ) ) ;
#165 = CC_DESIGN_APPROVAL ( #20, ( #144 ) ) ;
#166 = LOCAL_TIME ( 14, 40, 53.00000000000000000, #35 ) ;
#167 = ORIENTED_EDGE ( 'NONE', *, *, #118, .T. ) ;
#168 = AXIS2_PLACEMENT_3D ( 'NONE', #14, #108, #72 ) ;
#169 = ADVANCED_FACE ( 'NONE', ( #3 ), #76, .F. ) ;
#170 = DATE_AND_TIME ( #125, #94 ) ;
#171 = CALENDAR_DATE ( 2018, 3, 8 ) ;
#172 = APPLICATION_CONTEXT ( 'configuration controlled 3d designs of mechanical parts and assemblies' ) ;
#173 = DIRECTION ( 'NONE',  ( 1.000000000000000000, 0.0000000000000000000, 0.0000000000000000000 ) ) ;
#174 = COORDINATED_UNIVERSAL_TIME_OFFSET ( 5, 0, .BEHIND. ) ;
#175 = APPROVAL ( #79, 'UNSPECIFIED' ) ;
ENDSEC;
END-ISO-10303-21;
