ISO-10303-21;
HEADER;
FILE_DESCRIPTION (( 'STEP AP214' ),
    '1' );
FILE_NAME ('CTN014514.STEP',
    '2019-08-06T08:05:51',
    ( '' ),
    ( '' ),
    'SwSTEP 2.0',
    'SolidWorks 2018',
    '' );
FILE_SCHEMA (( 'AUTOMOTIVE_DESIGN' ));
ENDSEC;

DATA;
#1 = FILL_AREA_STYLE ('',( #170 ) ) ;
#2 = CARTESIAN_POINT ( 'NONE',  ( -0.9999999999999995559, 2.000000000000000000, 1.000000000000000222 ) ) ;
#3 = EDGE_LOOP ( 'NONE', ( #158, #287 ) ) ;
#4 =( NAMED_UNIT ( * ) PLANE_ANGLE_UNIT ( ) SI_UNIT ( $, .RADIAN. ) );
#5 = ORIENTED_EDGE ( 'NONE', *, *, #240, .T. ) ;
#6 = EDGE_LOOP ( 'NONE', ( #222, #275 ) ) ;
#7 = CARTESIAN_POINT ( 'NONE',  ( 0.9999999999999997780, 0.9971452012591326408, -0.3711238363137098206 ) ) ;
#8 = DIRECTION ( 'NONE',  ( -1.000000000000000000, -0.0000000000000000000, 8.673617379884035472E-17 ) ) ;
#9 = PRESENTATION_STYLE_ASSIGNMENT (( #244 ) ) ;
#10 = ADVANCED_FACE ( 'NONE', ( #137 ), #41, .F. ) ;
#11 = SURFACE_STYLE_FILL_AREA ( #359 ) ;
#12 = DIRECTION ( 'NONE',  ( 1.000000000000000000, 0.0000000000000000000, -1.084202172485504681E-16 ) ) ;
#13 = PRODUCT_DEFINITION_FORMATION_WITH_SPECIFIED_SOURCE ( 'ANY', '', #116, .NOT_KNOWN. ) ;
#14 = UNCERTAINTY_MEASURE_WITH_UNIT (LENGTH_MEASURE( 1.000000000000000082E-05 ), #79, 'distance_accuracy_value', 'NONE');
#15 = FILL_AREA_STYLE_COLOUR ( '', #213 ) ;
#16 = FACE_BOUND ( 'NONE', #3, .T. ) ;
#17 = STYLED_ITEM ( 'NONE', ( #300 ), #10 ) ;
#18 = EDGE_CURVE ( 'NONE', #62, #73, #57, .T. ) ;
#19 = AXIS2_PLACEMENT_3D ( 'NONE', #54, #175, #215 ) ;
#20 = AXIS2_PLACEMENT_3D ( 'NONE', #155, #63, #206 ) ;
#21 = FILL_AREA_STYLE ('',( #138 ) ) ;
#22 = PRESENTATION_LAYER_ASSIGNMENT (  '', '', ( #86 ) ) ;
#23 = VECTOR ( 'NONE', #315, 1000.000000000000000 ) ;
#24 =( GEOMETRIC_REPRESENTATION_CONTEXT ( 3 ) GLOBAL_UNCERTAINTY_ASSIGNED_CONTEXT ( ( #14 ) ) GLOBAL_UNIT_ASSIGNED_CONTEXT ( ( #79, #279, #142 ) ) REPRESENTATION_CONTEXT ( 'NONE', 'WORKASPACE' ) );
#25 = ORIENTED_EDGE ( 'NONE', *, *, #306, .T. ) ;
#26 = PLANE ( 'NONE',  #60 ) ;
#27 = SURFACE_STYLE_USAGE ( .BOTH. , #345 ) ;
#28 = SURFACE_STYLE_USAGE ( .BOTH. , #344 ) ;
#29 = PRESENTATION_STYLE_ASSIGNMENT (( #28 ) ) ;
#30 = DIRECTION ( 'NONE',  ( 0.0000000000000000000, 0.0000000000000000000, 1.000000000000000000 ) ) ;
#31 = CARTESIAN_POINT ( 'NONE',  ( 1.010000000000000009, 0.9971452012591326408, 0.1288761636862904292 ) ) ;
#32 = SURFACE_STYLE_USAGE ( .BOTH. , #55 ) ;
#33 = ADVANCED_FACE ( 'NONE', ( #83 ), #130, .F. ) ;
#34 = DIRECTION ( 'NONE',  ( 1.000000000000000000, 0.0000000000000000000, -3.252606517456513302E-16 ) ) ;
#35 = DIRECTION ( 'NONE',  ( 1.000000000000000000, -0.0000000000000000000, -1.084202172485504434E-16 ) ) ;
#36 = PRESENTATION_STYLE_ASSIGNMENT (( #218 ) ) ;
#37 = FACE_OUTER_BOUND ( 'NONE', #45, .T. ) ;
#38 = DIRECTION ( 'NONE',  ( -1.084202172485504681E-16, 0.0000000000000000000, -1.000000000000000000 ) ) ;
#39 = SURFACE_STYLE_FILL_AREA ( #21 ) ;
#40 =( GEOMETRIC_REPRESENTATION_CONTEXT ( 3 ) GLOBAL_UNCERTAINTY_ASSIGNED_CONTEXT ( ( #90 ) ) GLOBAL_UNIT_ASSIGNED_CONTEXT ( ( #84, #4, #47 ) ) REPRESENTATION_CONTEXT ( 'NONE', 'WORKASPACE' ) );
#41 = PLANE ( 'NONE',  #92 ) ;
#42 = LINE ( 'NONE', #265, #89 ) ;
#43 = PRESENTATION_STYLE_ASSIGNMENT (( #27 ) ) ;
#44 = STYLED_ITEM ( 'NONE', ( #36 ), #198 ) ;
#45 = EDGE_LOOP ( 'NONE', ( #157, #329, #141, #296 ) ) ;
#46 = VECTOR ( 'NONE', #181, 1000.000000000000000 ) ;
#47 =( NAMED_UNIT ( * ) SI_UNIT ( $, .STERADIAN. ) SOLID_ANGLE_UNIT ( ) );
#48 = FILL_AREA_STYLE ('',( #188 ) ) ;
#49 = VECTOR ( 'NONE', #245, 1000.000000000000000 ) ;
#50 = ORIENTED_EDGE ( 'NONE', *, *, #18, .T. ) ;
#51 = FACE_OUTER_BOUND ( 'NONE', #237, .T. ) ;
#52 = FILL_AREA_STYLE ('',( #278 ) ) ;
#53 = AXIS2_PLACEMENT_3D ( 'NONE', #234, #292, #326 ) ;
#54 = CARTESIAN_POINT ( 'NONE',  ( 0.9999999999999997780, 0.9971452012591326408, -0.3711238363137098206 ) ) ;
#55 = SURFACE_SIDE_STYLE ('',( #217 ) ) ;
#56 = VERTEX_POINT ( 'NONE', #162 ) ;
#57 = LINE ( 'NONE', #361, #187 ) ;
#58 =( LENGTH_UNIT ( ) NAMED_UNIT ( * ) SI_UNIT ( .MILLI., .METRE. ) );
#59 = FILL_AREA_STYLE_COLOUR ( '', #297 ) ;
#60 = AXIS2_PLACEMENT_3D ( 'NONE', #283, #143, #81 ) ;
#61 = LINE ( 'NONE', #31, #108 ) ;
#62 = VERTEX_POINT ( 'NONE', #102 ) ;
#63 = DIRECTION ( 'NONE',  ( 1.000000000000000000, 0.0000000000000000000, -8.673617379884033007E-17 ) ) ;
#64 = ORIENTED_EDGE ( 'NONE', *, *, #369, .T. ) ;
#65 = FACE_OUTER_BOUND ( 'NONE', #221, .T. ) ;
#66 = CARTESIAN_POINT ( 'NONE',  ( -0.9999999999999995559, 2.000000000000000000, 1.000000000000000222 ) ) ;
#67 =( NAMED_UNIT ( * ) SI_UNIT ( $, .STERADIAN. ) SOLID_ANGLE_UNIT ( ) );
#68 = PRESENTATION_STYLE_ASSIGNMENT (( #32 ) ) ;
#69 = COLOUR_RGB ( '',1.000000000000000000, 1.000000000000000000, 0.7529411764705882248 ) ;
#70 =( NAMED_UNIT ( * ) SI_UNIT ( $, .STERADIAN. ) SOLID_ANGLE_UNIT ( ) );
#71 = VERTEX_POINT ( 'NONE', #100 ) ;
#72 = VERTEX_POINT ( 'NONE', #276 ) ;
#73 = VERTEX_POINT ( 'NONE', #105 ) ;
#74 = SURFACE_STYLE_USAGE ( .BOTH. , #272 ) ;
#75 = PRESENTATION_STYLE_ASSIGNMENT (( #74 ) ) ;
#76 = DIRECTION ( 'NONE',  ( -8.673617379884033007E-17, 0.0000000000000000000, -1.000000000000000000 ) ) ;
#77 = STYLED_ITEM ( 'NONE', ( #68 ), #321 ) ;
#78 = CARTESIAN_POINT ( 'NONE',  ( -1.000000000000000222, 0.0000000000000000000, -0.9999999999999997780 ) ) ;
#79 =( LENGTH_UNIT ( ) NAMED_UNIT ( * ) SI_UNIT ( .MILLI., .METRE. ) );
#80 = UNCERTAINTY_MEASURE_WITH_UNIT (LENGTH_MEASURE( 1.000000000000000082E-05 ), #182, 'distance_accuracy_value', 'NONE');
#81 = DIRECTION ( 'NONE',  ( 1.084202172485504434E-16, 0.0000000000000000000, 1.000000000000000000 ) ) ;
#82 = LINE ( 'NONE', #195, #339 ) ;
#83 = FACE_OUTER_BOUND ( 'NONE', #149, .T. ) ;
#84 =( LENGTH_UNIT ( ) NAMED_UNIT ( * ) SI_UNIT ( .MILLI., .METRE. ) );
#85 = CARTESIAN_POINT ( 'NONE',  ( 1.010000000000000009, 0.9971452012591326408, -0.3711238363137098206 ) ) ;
#86 = STYLED_ITEM ( 'NONE', ( #9 ), #33 ) ;
#87 =( NAMED_UNIT ( * ) SI_UNIT ( $, .STERADIAN. ) SOLID_ANGLE_UNIT ( ) );
#88 = FILL_AREA_STYLE ('',( #59 ) ) ;
#89 = VECTOR ( 'NONE', #231, 1000.000000000000000 ) ;
#90 = UNCERTAINTY_MEASURE_WITH_UNIT (LENGTH_MEASURE( 1.000000000000000082E-05 ), #84, 'distance_accuracy_value', 'NONE');
#91 = ADVANCED_FACE ( 'NONE', ( #37 ), #330, .F. ) ;
#92 = AXIS2_PLACEMENT_3D ( 'NONE', #333, #334, #238 ) ;
#93 = LINE ( 'NONE', #346, #220 ) ;
#94 = FACE_OUTER_BOUND ( 'NONE', #303, .T. ) ;
#95 = UNCERTAINTY_MEASURE_WITH_UNIT (LENGTH_MEASURE( 1.000000000000000082E-05 ), #151, 'distance_accuracy_value', 'NONE');
#96 = MECHANICAL_DESIGN_GEOMETRIC_PRESENTATION_REPRESENTATION (  '', ( #77 ), #133 ) ;
#97 = PRESENTATION_LAYER_ASSIGNMENT (  '', '', ( #196 ) ) ;
#98 =( GEOMETRIC_REPRESENTATION_CONTEXT ( 3 ) GLOBAL_UNCERTAINTY_ASSIGNED_CONTEXT ( ( #235 ) ) GLOBAL_UNIT_ASSIGNED_CONTEXT ( ( #316, #197, #318 ) ) REPRESENTATION_CONTEXT ( 'NONE', 'WORKASPACE' ) );
#99 = AXIS2_PLACEMENT_3D ( 'NONE', #7, #35, #352 ) ;
#100 = CARTESIAN_POINT ( 'NONE',  ( 1.010000000000000009, 0.9971452012591326408, -0.8711238363137100427 ) ) ;
#101 = DIRECTION ( 'NONE',  ( 0.0000000000000000000, 0.0000000000000000000, 1.000000000000000000 ) ) ;
#102 = CARTESIAN_POINT ( 'NONE',  ( 1.000000000000000000, 2.000000000000000000, 1.000000000000000000 ) ) ;
#103 = EDGE_CURVE ( 'NONE', #71, #180, #309, .T. ) ;
#104 = ORIENTED_EDGE ( 'NONE', *, *, #306, .F. ) ;
#105 = CARTESIAN_POINT ( 'NONE',  ( 1.000000000000000000, 0.0000000000000000000, 1.000000000000000000 ) ) ;
#106 = AXIS2_PLACEMENT_3D ( 'NONE', #66, #38, #298 ) ;
#107 = APPLICATION_CONTEXT ( 'automotive_design' ) ;
#108 = VECTOR ( 'NONE', #117, 1000.000000000000000 ) ;
#109 = SURFACE_SIDE_STYLE ('',( #178 ) ) ;
#110 = DIRECTION ( 'NONE',  ( 0.0000000000000000000, -0.0000000000000000000, 1.000000000000000000 ) ) ;
#111 = MECHANICAL_DESIGN_GEOMETRIC_PRESENTATION_REPRESENTATION (  '', ( #86 ), #131 ) ;
#112 = EDGE_CURVE ( 'NONE', #293, #62, #360, .T. ) ;
#113 = FILL_AREA_STYLE_COLOUR ( '', #241 ) ;
#114 = COLOUR_RGB ( '',0.0000000000000000000, 0.0000000000000000000, 0.0000000000000000000 ) ;
#115 = MECHANICAL_DESIGN_GEOMETRIC_PRESENTATION_REPRESENTATION (  '', ( #350 ), #24 ) ;
#116 = PRODUCT ( 'CTN014514', 'CTN014514', '', ( #242 ) ) ;
#117 = DIRECTION ( 'NONE',  ( -1.000000000000000000, -0.0000000000000000000, 8.673617379884035472E-17 ) ) ;
#118 = CARTESIAN_POINT ( 'NONE',  ( -0.9999999999999995559, 0.0000000000000000000, 1.000000000000000222 ) ) ;
#119 = CARTESIAN_POINT ( 'NONE',  ( -1.000000000000000222, 2.000000000000000000, -0.9999999999999997780 ) ) ;
#120 = PRESENTATION_LAYER_ASSIGNMENT (  '', '', ( #17 ) ) ;
#121 =( GEOMETRIC_REPRESENTATION_CONTEXT ( 3 ) GLOBAL_UNCERTAINTY_ASSIGNED_CONTEXT ( ( #252 ) ) GLOBAL_UNIT_ASSIGNED_CONTEXT ( ( #308, #277, #135 ) ) REPRESENTATION_CONTEXT ( 'NONE', 'WORKASPACE' ) );
#122 = SURFACE_STYLE_FILL_AREA ( #251 ) ;
#123 = SURFACE_STYLE_FILL_AREA ( #48 ) ;
#124 = ADVANCED_FACE ( 'NONE', ( #94 ), #351, .T. ) ;
#125 = EDGE_CURVE ( 'NONE', #227, #293, #127, .T. ) ;
#126 = ORIENTED_EDGE ( 'NONE', *, *, #160, .F. ) ;
#127 = LINE ( 'NONE', #262, #46 ) ;
#128 = ORIENTED_EDGE ( 'NONE', *, *, #204, .T. ) ;
#129 = EDGE_LOOP ( 'NONE', ( #128, #126, #136, #50 ) ) ;
#130 = PLANE ( 'NONE',  #255 ) ;
#131 =( GEOMETRIC_REPRESENTATION_CONTEXT ( 3 ) GLOBAL_UNCERTAINTY_ASSIGNED_CONTEXT ( ( #294 ) ) GLOBAL_UNIT_ASSIGNED_CONTEXT ( ( #310, #271, #70 ) ) REPRESENTATION_CONTEXT ( 'NONE', 'WORKASPACE' ) );
#132 = ORIENTED_EDGE ( 'NONE', *, *, #336, .F. ) ;
#133 =( GEOMETRIC_REPRESENTATION_CONTEXT ( 3 ) GLOBAL_UNCERTAINTY_ASSIGNED_CONTEXT ( ( #246 ) ) GLOBAL_UNIT_ASSIGNED_CONTEXT ( ( #58, #322, #87 ) ) REPRESENTATION_CONTEXT ( 'NONE', 'WORKASPACE' ) );
#134 = VECTOR ( 'NONE', #177, 1000.000000000000000 ) ;
#135 =( NAMED_UNIT ( * ) SI_UNIT ( $, .STERADIAN. ) SOLID_ANGLE_UNIT ( ) );
#136 = ORIENTED_EDGE ( 'NONE', *, *, #139, .F. ) ;
#137 = FACE_OUTER_BOUND ( 'NONE', #284, .T. ) ;
#138 = FILL_AREA_STYLE_COLOUR ( '', #314 ) ;
#139 = EDGE_CURVE ( 'NONE', #62, #56, #264, .T. ) ;
#140 = UNCERTAINTY_MEASURE_WITH_UNIT (LENGTH_MEASURE( 1.000000000000000082E-05 ), #312, 'distance_accuracy_value', 'NONE');
#141 = ORIENTED_EDGE ( 'NONE', *, *, #112, .F. ) ;
#142 =( NAMED_UNIT ( * ) SI_UNIT ( $, .STERADIAN. ) SOLID_ANGLE_UNIT ( ) );
#143 = DIRECTION ( 'NONE',  ( -1.000000000000000000, 0.0000000000000000000, 1.084202172485504434E-16 ) ) ;
#144 = ORIENTED_EDGE ( 'NONE', *, *, #186, .F. ) ;
#145 = STYLED_ITEM ( 'NONE', ( #270 ), #228 ) ;
#146 = CARTESIAN_POINT ( 'NONE',  ( 1.010000000000000009, 0.9971452012591326408, -0.3711238363137098206 ) ) ;
#147 = VERTEX_POINT ( 'NONE', #261 ) ;
#148 =( NAMED_UNIT ( * ) PLANE_ANGLE_UNIT ( ) SI_UNIT ( $, .RADIAN. ) );
#149 = EDGE_LOOP ( 'NONE', ( #25, #165, #207, #159 ) ) ;
#150 = PRODUCT_RELATED_PRODUCT_CATEGORY ( 'part', '', ( #116 ) ) ;
#151 =( LENGTH_UNIT ( ) NAMED_UNIT ( * ) SI_UNIT ( .MILLI., .METRE. ) );
#152 = CLOSED_SHELL ( 'NONE', ( #356, #321, #91, #228, #33, #258, #10, #124, #202 ) ) ;
#153 = VECTOR ( 'NONE', #179, 1000.000000000000000 ) ;
#154 = EDGE_CURVE ( 'NONE', #71, #199, #42, .T. ) ;
#155 = CARTESIAN_POINT ( 'NONE',  ( 1.010000000000000009, 0.9971452012591326408, -0.3711238363137098206 ) ) ;
#156 = ORIENTED_EDGE ( 'NONE', *, *, #154, .F. ) ;
#157 = ORIENTED_EDGE ( 'NONE', *, *, #336, .T. ) ;
#158 = ORIENTED_EDGE ( 'NONE', *, *, #281, .F. ) ;
#159 = ORIENTED_EDGE ( 'NONE', *, *, #160, .T. ) ;
#160 = EDGE_CURVE ( 'NONE', #56, #147, #323, .T. ) ;
#161 = ORIENTED_EDGE ( 'NONE', *, *, #328, .F. ) ;
#162 = CARTESIAN_POINT ( 'NONE',  ( 0.9999999999999997780, 2.000000000000000000, -1.000000000000000000 ) ) ;
#163 = CARTESIAN_POINT ( 'NONE',  ( -1.000000000000000222, 2.000000000000000000, -0.9999999999999997780 ) ) ;
#164 = SURFACE_STYLE_FILL_AREA ( #52 ) ;
#165 = ORIENTED_EDGE ( 'NONE', *, *, #369, .F. ) ;
#166 = AXIS2_PLACEMENT_3D ( 'NONE', #348, #282, #110 ) ;
#167 = CARTESIAN_POINT ( 'NONE',  ( 0.9999999999999997780, 2.000000000000000000, -1.000000000000000000 ) ) ;
#168 = SURFACE_STYLE_USAGE ( .BOTH. , #313 ) ;
#169 = ORIENTED_EDGE ( 'NONE', *, *, #154, .T. ) ;
#170 = FILL_AREA_STYLE_COLOUR ( '', #114 ) ;
#171 = AXIS2_PLACEMENT_3D ( 'NONE', #119, #34, #324 ) ;
#172 =( GEOMETRIC_REPRESENTATION_CONTEXT ( 3 ) GLOBAL_UNCERTAINTY_ASSIGNED_CONTEXT ( ( #80 ) ) GLOBAL_UNIT_ASSIGNED_CONTEXT ( ( #182, #236, #67 ) ) REPRESENTATION_CONTEXT ( 'NONE', 'WORKASPACE' ) );
#173 = PRESENTATION_LAYER_ASSIGNMENT (  '', '', ( #44 ) ) ;
#174 = ORIENTED_EDGE ( 'NONE', *, *, #103, .F. ) ;
#175 = DIRECTION ( 'NONE',  ( 1.000000000000000000, -0.0000000000000000000, -1.084202172485504434E-16 ) ) ;
#176 = AXIS2_PLACEMENT_3D ( 'NONE', #349, #8, #30 ) ;
#177 = DIRECTION ( 'NONE',  ( 1.000000000000000000, 0.0000000000000000000, -1.084202172485504681E-16 ) ) ;
#178 = SURFACE_STYLE_FILL_AREA ( #1 ) ;
#179 = DIRECTION ( 'NONE',  ( -0.0000000000000000000, -1.000000000000000000, -0.0000000000000000000 ) ) ;
#180 = VERTEX_POINT ( 'NONE', #327 ) ;
#181 = DIRECTION ( 'NONE',  ( 3.252606517456513302E-16, 0.0000000000000000000, 1.000000000000000000 ) ) ;
#182 =( LENGTH_UNIT ( ) NAMED_UNIT ( * ) SI_UNIT ( .MILLI., .METRE. ) );
#183 = DIRECTION ( 'NONE',  ( -0.0000000000000000000, -1.000000000000000000, -0.0000000000000000000 ) ) ;
#184 = AXIS2_PLACEMENT_3D ( 'NONE', #146, #347, #76 ) ;
#185 = FACE_OUTER_BOUND ( 'NONE', #372, .T. ) ;
#186 = EDGE_CURVE ( 'NONE', #180, #205, #61, .T. ) ;
#187 = VECTOR ( 'NONE', #183, 1000.000000000000000 ) ;
#188 = FILL_AREA_STYLE_COLOUR ( '', #194 ) ;
#189 = SHAPE_DEFINITION_REPRESENTATION ( #268, #355 ) ;
#190 = MECHANICAL_DESIGN_GEOMETRIC_PRESENTATION_REPRESENTATION (  '', ( #44 ), #98 ) ;
#191 =( NAMED_UNIT ( * ) PLANE_ANGLE_UNIT ( ) SI_UNIT ( $, .RADIAN. ) );
#192 =( GEOMETRIC_REPRESENTATION_CONTEXT ( 3 ) GLOBAL_UNCERTAINTY_ASSIGNED_CONTEXT ( ( #95 ) ) GLOBAL_UNIT_ASSIGNED_CONTEXT ( ( #151, #148, #224 ) ) REPRESENTATION_CONTEXT ( 'NONE', 'WORKASPACE' ) );
#193 = CARTESIAN_POINT ( 'NONE',  ( 0.9999999999999997780, 0.0000000000000000000, -1.000000000000000000 ) ) ;
#194 = COLOUR_RGB ( '',1.000000000000000000, 1.000000000000000000, 0.7529411764705882248 ) ;
#195 = CARTESIAN_POINT ( 'NONE',  ( -1.000000000000000222, 0.0000000000000000000, -0.9999999999999997780 ) ) ;
#196 = STYLED_ITEM ( 'NONE', ( #43 ), #91 ) ;
#197 =( NAMED_UNIT ( * ) PLANE_ANGLE_UNIT ( ) SI_UNIT ( $, .RADIAN. ) );
#198 = MANIFOLD_SOLID_BREP ( 'Boss-Extrude2', #152 ) ;
#199 = VERTEX_POINT ( 'NONE', #370 ) ;
#200 = CARTESIAN_POINT ( 'NONE',  ( -1.000000000000000222, 2.000000000000000000, -0.9999999999999997780 ) ) ;
#201 = PLANE ( 'NONE',  #171 ) ;
#202 = ADVANCED_FACE ( 'NONE', ( #203 ), #368, .T. ) ;
#203 = FACE_OUTER_BOUND ( 'NONE', #6, .T. ) ;
#204 = EDGE_CURVE ( 'NONE', #73, #147, #229, .T. ) ;
#205 = VERTEX_POINT ( 'NONE', #250 ) ;
#206 = DIRECTION ( 'NONE',  ( 0.0000000000000000000, 0.0000000000000000000, -1.000000000000000000 ) ) ;
#207 = ORIENTED_EDGE ( 'NONE', *, *, #249, .F. ) ;
#208 = SURFACE_SIDE_STYLE ('',( #11 ) ) ;
#209 = LINE ( 'NONE', #317, #342 ) ;
#210 = STYLED_ITEM ( 'NONE', ( #75 ), #355 ) ;
#211 = SURFACE_SIDE_STYLE ('',( #253 ) ) ;
#212 = ORIENTED_EDGE ( 'NONE', *, *, #139, .T. ) ;
#213 = COLOUR_RGB ( '',1.000000000000000000, 1.000000000000000000, 0.7529411764705882248 ) ;
#214 = APPLICATION_PROTOCOL_DEFINITION ( 'draft international standard', 'automotive_design', 1998, #107 ) ;
#215 = DIRECTION ( 'NONE',  ( 0.0000000000000000000, 0.0000000000000000000, 1.000000000000000000 ) ) ;
#216 = PRODUCT_DEFINITION_CONTEXT ( 'detailed design', #365, 'design' ) ;
#217 = SURFACE_STYLE_FILL_AREA ( #88 ) ;
#218 = SURFACE_STYLE_USAGE ( .BOTH. , #109 ) ;
#219 = DIRECTION ( 'NONE',  ( 3.252606517456513302E-16, 0.0000000000000000000, 1.000000000000000000 ) ) ;
#220 = VECTOR ( 'NONE', #257, 1000.000000000000000 ) ;
#221 = EDGE_LOOP ( 'NONE', ( #5, #161, #362, #64 ) ) ;
#222 = ORIENTED_EDGE ( 'NONE', *, *, #291, .T. ) ;
#223 = DIRECTION ( 'NONE',  ( 0.0000000000000000000, 0.0000000000000000000, -1.000000000000000000 ) ) ;
#224 =( NAMED_UNIT ( * ) SI_UNIT ( $, .STERADIAN. ) SOLID_ANGLE_UNIT ( ) );
#225 = CARTESIAN_POINT ( 'NONE',  ( 0.0000000000000000000, 0.0000000000000000000, 0.0000000000000000000 ) ) ;
#226 = VECTOR ( 'NONE', #295, 1000.000000000000000 ) ;
#227 = VERTEX_POINT ( 'NONE', #343 ) ;
#228 = ADVANCED_FACE ( 'NONE', ( #16, #354 ), #26, .F. ) ;
#229 = LINE ( 'NONE', #193, #23 ) ;
#230 = VECTOR ( 'NONE', #12, 1000.000000000000000 ) ;
#231 = DIRECTION ( 'NONE',  ( -1.000000000000000000, -0.0000000000000000000, 8.673617379884035472E-17 ) ) ;
#232 = VERTEX_POINT ( 'NONE', #78 ) ;
#233 = LINE ( 'NONE', #118, #134 ) ;
#234 = CARTESIAN_POINT ( 'NONE',  ( 1.010000000000000009, 0.9971452012591326408, -0.3711238363137098206 ) ) ;
#235 = UNCERTAINTY_MEASURE_WITH_UNIT (LENGTH_MEASURE( 1.000000000000000082E-05 ), #316, 'distance_accuracy_value', 'NONE');
#236 =( NAMED_UNIT ( * ) PLANE_ANGLE_UNIT ( ) SI_UNIT ( $, .RADIAN. ) );
#237 = EDGE_LOOP ( 'NONE', ( #174, #169, #263, #144 ) ) ;
#238 = DIRECTION ( 'NONE',  ( 0.0000000000000000000, -0.0000000000000000000, 1.000000000000000000 ) ) ;
#239 = FILL_AREA_STYLE ('',( #337 ) ) ;
#240 = EDGE_CURVE ( 'NONE', #232, #72, #82, .T. ) ;
#241 = COLOUR_RGB ( '',1.000000000000000000, 1.000000000000000000, 0.7529411764705882248 ) ;
#242 = PRODUCT_CONTEXT ( 'NONE', #107, 'mechanical' ) ;
#243 = PRESENTATION_LAYER_ASSIGNMENT (  '', '', ( #210 ) ) ;
#244 = SURFACE_STYLE_USAGE ( .BOTH. , #211 ) ;
#245 = DIRECTION ( 'NONE',  ( -0.0000000000000000000, -1.000000000000000000, -0.0000000000000000000 ) ) ;
#246 = UNCERTAINTY_MEASURE_WITH_UNIT (LENGTH_MEASURE( 1.000000000000000082E-05 ), #58, 'distance_accuracy_value', 'NONE');
#247 = DIRECTION ( 'NONE',  ( -1.000000000000000000, -0.0000000000000000000, 1.084202172485504434E-16 ) ) ;
#248 =( NAMED_UNIT ( * ) SI_UNIT ( $, .STERADIAN. ) SOLID_ANGLE_UNIT ( ) );
#249 = EDGE_CURVE ( 'NONE', #56, #227, #93, .T. ) ;
#250 = CARTESIAN_POINT ( 'NONE',  ( 0.9999999999999997780, 0.9971452012591326408, 0.1288761636862904292 ) ) ;
#251 = FILL_AREA_STYLE ('',( #113 ) ) ;
#252 = UNCERTAINTY_MEASURE_WITH_UNIT (LENGTH_MEASURE( 1.000000000000000082E-05 ), #308, 'distance_accuracy_value', 'NONE');
#253 = SURFACE_STYLE_FILL_AREA ( #239 ) ;
#254 = PLANE ( 'NONE',  #166 ) ;
#255 = AXIS2_PLACEMENT_3D ( 'NONE', #163, #274, #307 ) ;
#256 = LINE ( 'NONE', #285, #331 ) ;
#257 = DIRECTION ( 'NONE',  ( -1.000000000000000000, -0.0000000000000000000, 1.084202172485504434E-16 ) ) ;
#258 = ADVANCED_FACE ( 'NONE', ( #185 ), #254, .T. ) ;
#259 = CIRCLE ( 'NONE', #338, 0.5000000000000002220 ) ;
#260 = COLOUR_RGB ( '',1.000000000000000000, 1.000000000000000000, 0.7529411764705882248 ) ;
#261 = CARTESIAN_POINT ( 'NONE',  ( 0.9999999999999997780, 0.0000000000000000000, -1.000000000000000000 ) ) ;
#262 = CARTESIAN_POINT ( 'NONE',  ( -1.000000000000000222, 2.000000000000000000, -0.9999999999999997780 ) ) ;
#263 = ORIENTED_EDGE ( 'NONE', *, *, #353, .T. ) ;
#264 = LINE ( 'NONE', #332, #226 ) ;
#265 = CARTESIAN_POINT ( 'NONE',  ( 1.010000000000000009, 0.9971452012591326408, -0.8711238363137100427 ) ) ;
#266 = ORIENTED_EDGE ( 'NONE', *, *, #291, .F. ) ;
#267 = SURFACE_STYLE_USAGE ( .BOTH. , #208 ) ;
#268 = PRODUCT_DEFINITION_SHAPE ( 'NONE', 'NONE',  #269 ) ;
#269 = PRODUCT_DEFINITION ( 'UNKNOWN', '', #13, #216 ) ;
#270 = PRESENTATION_STYLE_ASSIGNMENT (( #168 ) ) ;
#271 =( NAMED_UNIT ( * ) PLANE_ANGLE_UNIT ( ) SI_UNIT ( $, .RADIAN. ) );
#272 = SURFACE_SIDE_STYLE ('',( #39 ) ) ;
#273 = MECHANICAL_DESIGN_GEOMETRIC_PRESENTATION_REPRESENTATION (  '', ( #196 ), #302 ) ;
#274 = DIRECTION ( 'NONE',  ( 1.084202172485504434E-16, -0.0000000000000000000, 1.000000000000000000 ) ) ;
#275 = ORIENTED_EDGE ( 'NONE', *, *, #103, .T. ) ;
#276 = CARTESIAN_POINT ( 'NONE',  ( -0.9999999999999995559, 0.0000000000000000000, 1.000000000000000222 ) ) ;
#277 =( NAMED_UNIT ( * ) PLANE_ANGLE_UNIT ( ) SI_UNIT ( $, .RADIAN. ) );
#278 = FILL_AREA_STYLE_COLOUR ( '', #260 ) ;
#279 =( NAMED_UNIT ( * ) PLANE_ANGLE_UNIT ( ) SI_UNIT ( $, .RADIAN. ) );
#280 = CYLINDRICAL_SURFACE ( 'NONE', #176, 0.5000000000000002220 ) ;
#281 = EDGE_CURVE ( 'NONE', #205, #199, #290, .T. ) ;
#282 = DIRECTION ( 'NONE',  ( -0.0000000000000000000, 1.000000000000000000, 0.0000000000000000000 ) ) ;
#283 = CARTESIAN_POINT ( 'NONE',  ( 0.9999999999999997780, 2.000000000000000000, -1.000000000000000000 ) ) ;
#284 = EDGE_LOOP ( 'NONE', ( #325, #104, #363, #132 ) ) ;
#285 = CARTESIAN_POINT ( 'NONE',  ( -0.9999999999999995559, 2.000000000000000000, 1.000000000000000222 ) ) ;
#286 = MECHANICAL_DESIGN_GEOMETRIC_PRESENTATION_REPRESENTATION (  '', ( #210 ), #121 ) ;
#287 = ORIENTED_EDGE ( 'NONE', *, *, #353, .F. ) ;
#288 = DIRECTION ( 'NONE',  ( 1.000000000000000000, 0.0000000000000000000, -8.673617379884033007E-17 ) ) ;
#289 = PRESENTATION_LAYER_ASSIGNMENT (  '', '', ( #145 ) ) ;
#290 = CIRCLE ( 'NONE', #19, 0.5000000000000002220 ) ;
#291 = EDGE_CURVE ( 'NONE', #180, #71, #259, .T. ) ;
#292 = DIRECTION ( 'NONE',  ( -1.000000000000000000, -0.0000000000000000000, 8.673617379884035472E-17 ) ) ;
#293 = VERTEX_POINT ( 'NONE', #2 ) ;
#294 = UNCERTAINTY_MEASURE_WITH_UNIT (LENGTH_MEASURE( 1.000000000000000082E-05 ), #310, 'distance_accuracy_value', 'NONE');
#295 = DIRECTION ( 'NONE',  ( -1.084202172485504434E-16, -0.0000000000000000000, -1.000000000000000000 ) ) ;
#296 = ORIENTED_EDGE ( 'NONE', *, *, #328, .T. ) ;
#297 = COLOUR_RGB ( '',1.000000000000000000, 1.000000000000000000, 0.7529411764705882248 ) ;
#298 = DIRECTION ( 'NONE',  ( -1.000000000000000000, 0.0000000000000000000, 1.084202172485504681E-16 ) ) ;
#299 = AXIS2_PLACEMENT_3D ( 'NONE', #225, #101, #305 ) ;
#300 = PRESENTATION_STYLE_ASSIGNMENT (( #267 ) ) ;
#301 = ORIENTED_EDGE ( 'NONE', *, *, #281, .T. ) ;
#302 =( GEOMETRIC_REPRESENTATION_CONTEXT ( 3 ) GLOBAL_UNCERTAINTY_ASSIGNED_CONTEXT ( ( #140 ) ) GLOBAL_UNIT_ASSIGNED_CONTEXT ( ( #312, #191, #248 ) ) REPRESENTATION_CONTEXT ( 'NONE', 'WORKASPACE' ) );
#303 = EDGE_LOOP ( 'NONE', ( #156, #266, #340, #301 ) ) ;
#304 = LINE ( 'NONE', #200, #153 ) ;
#305 = DIRECTION ( 'NONE',  ( 1.000000000000000000, 0.0000000000000000000, 0.0000000000000000000 ) ) ;
#306 = EDGE_CURVE ( 'NONE', #147, #232, #209, .T. ) ;
#307 = DIRECTION ( 'NONE',  ( 1.000000000000000000, 0.0000000000000000000, -1.084202172485504434E-16 ) ) ;
#308 =( LENGTH_UNIT ( ) NAMED_UNIT ( * ) SI_UNIT ( .MILLI., .METRE. ) );
#309 = CIRCLE ( 'NONE', #20, 0.5000000000000002220 ) ;
#310 =( LENGTH_UNIT ( ) NAMED_UNIT ( * ) SI_UNIT ( .MILLI., .METRE. ) );
#311 = CIRCLE ( 'NONE', #99, 0.5000000000000002220 ) ;
#312 =( LENGTH_UNIT ( ) NAMED_UNIT ( * ) SI_UNIT ( .MILLI., .METRE. ) );
#313 = SURFACE_SIDE_STYLE ('',( #164 ) ) ;
#314 = COLOUR_RGB ( '',0.0000000000000000000, 0.0000000000000000000, 0.0000000000000000000 ) ;
#315 = DIRECTION ( 'NONE',  ( -1.084202172485504434E-16, -0.0000000000000000000, -1.000000000000000000 ) ) ;
#316 =( LENGTH_UNIT ( ) NAMED_UNIT ( * ) SI_UNIT ( .MILLI., .METRE. ) );
#317 = CARTESIAN_POINT ( 'NONE',  ( -1.000000000000000222, 0.0000000000000000000, -0.9999999999999997780 ) ) ;
#318 =( NAMED_UNIT ( * ) SI_UNIT ( $, .STERADIAN. ) SOLID_ANGLE_UNIT ( ) );
#319 = MECHANICAL_DESIGN_GEOMETRIC_PRESENTATION_REPRESENTATION (  '', ( #145 ), #40 ) ;
#320 = DIRECTION ( 'NONE',  ( -0.0000000000000000000, -1.000000000000000000, -0.0000000000000000000 ) ) ;
#321 = ADVANCED_FACE ( 'NONE', ( #65 ), #201, .F. ) ;
#322 =( NAMED_UNIT ( * ) PLANE_ANGLE_UNIT ( ) SI_UNIT ( $, .RADIAN. ) );
#323 = LINE ( 'NONE', #167, #49 ) ;
#324 = DIRECTION ( 'NONE',  ( -3.252606517456513302E-16, 0.0000000000000000000, -1.000000000000000000 ) ) ;
#325 = ORIENTED_EDGE ( 'NONE', *, *, #240, .F. ) ;
#326 = DIRECTION ( 'NONE',  ( 0.0000000000000000000, 0.0000000000000000000, 1.000000000000000000 ) ) ;
#327 = CARTESIAN_POINT ( 'NONE',  ( 1.010000000000000009, 0.9971452012591326408, 0.1288761636862904292 ) ) ;
#328 = EDGE_CURVE ( 'NONE', #293, #72, #256, .T. ) ;
#329 = ORIENTED_EDGE ( 'NONE', *, *, #18, .F. ) ;
#330 = PLANE ( 'NONE',  #106 ) ;
#331 = VECTOR ( 'NONE', #320, 1000.000000000000000 ) ;
#332 = CARTESIAN_POINT ( 'NONE',  ( 0.9999999999999997780, 2.000000000000000000, -1.000000000000000000 ) ) ;
#333 = CARTESIAN_POINT ( 'NONE',  ( 0.0000000000000000000, 0.0000000000000000000, 0.0000000000000000000 ) ) ;
#334 = DIRECTION ( 'NONE',  ( -0.0000000000000000000, 1.000000000000000000, 0.0000000000000000000 ) ) ;
#335 = MECHANICAL_DESIGN_GEOMETRIC_PRESENTATION_REPRESENTATION (  '', ( #17 ), #172 ) ;
#336 = EDGE_CURVE ( 'NONE', #72, #73, #233, .T. ) ;
#337 = FILL_AREA_STYLE_COLOUR ( '', #69 ) ;
#338 = AXIS2_PLACEMENT_3D ( 'NONE', #85, #288, #223 ) ;
#339 = VECTOR ( 'NONE', #219, 1000.000000000000000 ) ;
#340 = ORIENTED_EDGE ( 'NONE', *, *, #186, .T. ) ;
#341 = APPLICATION_PROTOCOL_DEFINITION ( 'draft international standard', 'automotive_design', 1998, #365 ) ;
#342 = VECTOR ( 'NONE', #247, 1000.000000000000000 ) ;
#343 = CARTESIAN_POINT ( 'NONE',  ( -1.000000000000000222, 2.000000000000000000, -0.9999999999999997780 ) ) ;
#344 = SURFACE_SIDE_STYLE ('',( #122 ) ) ;
#345 = SURFACE_SIDE_STYLE ('',( #123 ) ) ;
#346 = CARTESIAN_POINT ( 'NONE',  ( -1.000000000000000222, 2.000000000000000000, -0.9999999999999997780 ) ) ;
#347 = DIRECTION ( 'NONE',  ( 1.000000000000000000, 0.0000000000000000000, -8.673617379884033007E-17 ) ) ;
#348 = CARTESIAN_POINT ( 'NONE',  ( 0.0000000000000000000, 2.000000000000000000, 0.0000000000000000000 ) ) ;
#349 = CARTESIAN_POINT ( 'NONE',  ( 1.010000000000000009, 0.9971452012591326408, -0.3711238363137098206 ) ) ;
#350 = STYLED_ITEM ( 'NONE', ( #29 ), #258 ) ;
#351 = CYLINDRICAL_SURFACE ( 'NONE', #53, 0.5000000000000002220 ) ;
#352 = DIRECTION ( 'NONE',  ( 0.0000000000000000000, 0.0000000000000000000, 1.000000000000000000 ) ) ;
#353 = EDGE_CURVE ( 'NONE', #199, #205, #311, .T. ) ;
#354 = FACE_OUTER_BOUND ( 'NONE', #129, .T. ) ;
#355 = ADVANCED_BREP_SHAPE_REPRESENTATION ( 'CTN014514', ( #198, #299 ), #192 ) ;
#356 = ADVANCED_FACE ( 'NONE', ( #51 ), #280, .T. ) ;
#357 = CARTESIAN_POINT ( 'NONE',  ( -0.9999999999999995559, 2.000000000000000000, 1.000000000000000222 ) ) ;
#358 = ORIENTED_EDGE ( 'NONE', *, *, #125, .T. ) ;
#359 = FILL_AREA_STYLE ('',( #15 ) ) ;
#360 = LINE ( 'NONE', #357, #230 ) ;
#361 = CARTESIAN_POINT ( 'NONE',  ( 1.000000000000000000, 2.000000000000000000, 1.000000000000000000 ) ) ;
#362 = ORIENTED_EDGE ( 'NONE', *, *, #125, .F. ) ;
#363 = ORIENTED_EDGE ( 'NONE', *, *, #204, .F. ) ;
#364 = ORIENTED_EDGE ( 'NONE', *, *, #249, .T. ) ;
#365 = APPLICATION_CONTEXT ( 'automotive_design' ) ;
#366 = ORIENTED_EDGE ( 'NONE', *, *, #112, .T. ) ;
#367 = PRESENTATION_LAYER_ASSIGNMENT (  '', '', ( #77 ) ) ;
#368 = PLANE ( 'NONE',  #184 ) ;
#369 = EDGE_CURVE ( 'NONE', #227, #232, #304, .T. ) ;
#370 = CARTESIAN_POINT ( 'NONE',  ( 0.9999999999999997780, 0.9971452012591326408, -0.8711238363137100427 ) ) ;
#371 = PRESENTATION_LAYER_ASSIGNMENT (  '', '', ( #350 ) ) ;
#372 = EDGE_LOOP ( 'NONE', ( #358, #366, #212, #364 ) ) ;
ENDSEC;
END-ISO-10303-21;
