ISO-10303-21;
HEADER;
FILE_DESCRIPTION (( 'STEP AP203' ),
    '1' );
FILE_NAME ('Web Model 45575_13314.step',
    '2020-11-03T21:48:57',
    ( '' ),
    ( '' ),
    'SwSTEP 2.0',
    'SolidWorks 2018',
    '' );
FILE_SCHEMA (( 'CONFIG_CONTROL_DESIGN' ));
ENDSEC;

DATA;
#1 = VECTOR ( 'NONE', #45, 1000.000000000000000 ) ;
#2 = ADVANCED_FACE ( 'NONE', ( #137 ), #96, .T. ) ;
#3 = CARTESIAN_POINT ( 'NONE',  ( 0.0000000000000000000, 0.0000000000000000000, 0.0000000000000000000 ) ) ;
#4 = CC_DESIGN_PERSON_AND_ORGANIZATION_ASSIGNMENT ( #70, #102, ( #6 ) ) ;
#5 = ORIENTED_EDGE ( 'NONE', *, *, #142, .F. ) ;
#6 = PRODUCT ( 'Web Model 45575_13314', 'Web Model 45575_13314', '', ( #40 ) ) ;
#7 = CARTESIAN_POINT ( 'NONE',  ( 7.500000000000000000, 0.0000000000000000000, 0.0000000000000000000 ) ) ;
#8 = DATE_TIME_ROLE ( 'classification_date' ) ;
#9 = LOCAL_TIME ( 16, 48, 57.00000000000000000, #116 ) ;
#10 = VERTEX_POINT ( 'NONE', #32 ) ;
#11 = APPLICATION_PROTOCOL_DEFINITION ( 'international standard', 'config_control_design', 1994, #62 ) ;
#12 = APPROVAL_STATUS ( 'not_yet_approved' ) ;
#13 = CALENDAR_DATE ( 2020, 3, 11 ) ;
#14 = EDGE_CURVE ( 'NONE', #10, #18, #53, .T. ) ;
#15 =( LENGTH_UNIT ( ) NAMED_UNIT ( * ) SI_UNIT ( .MILLI., .METRE. ) );
#16 = ORIENTED_EDGE ( 'NONE', *, *, #135, .F. ) ;
#17 = ORIENTED_EDGE ( 'NONE', *, *, #168, .T. ) ;
#18 = VERTEX_POINT ( 'NONE', #7 ) ;
#19 = ORIENTED_EDGE ( 'NONE', *, *, #142, .T. ) ;
#20 = AXIS2_PLACEMENT_3D ( 'NONE', #122, #37, #133 ) ;
#21 = CARTESIAN_POINT ( 'NONE',  ( 0.0000000000000000000, 0.0000000000000000000, -3.000000000000000000 ) ) ;
#22 = DIRECTION ( 'NONE',  ( 0.0000000000000000000, 0.0000000000000000000, 1.000000000000000000 ) ) ;
#23 = FACE_OUTER_BOUND ( 'NONE', #36, .T. ) ;
#24 = CC_DESIGN_PERSON_AND_ORGANIZATION_ASSIGNMENT ( #164, #167, ( #132 ) ) ;
#25 = UNCERTAINTY_MEASURE_WITH_UNIT (LENGTH_MEASURE( 1.000000000000000082E-05 ), #15, 'distance_accuracy_value', 'NONE');
#26 = APPROVAL ( #120, 'UNSPECIFIED' ) ;
#27 = APPROVAL_DATE_TIME ( #166, #131 ) ;
#28 = FACE_OUTER_BOUND ( 'NONE', #98, .T. ) ;
#29 = CC_DESIGN_DATE_AND_TIME_ASSIGNMENT ( #172, #48, ( #124 ) ) ;
#30 = APPROVAL_PERSON_ORGANIZATION ( #150, #131, #84 ) ;
#31 = DIRECTION ( 'NONE',  ( 1.000000000000000000, 0.0000000000000000000, -0.0000000000000000000 ) ) ;
#32 = CARTESIAN_POINT ( 'NONE',  ( -7.500000000000000000, 9.184850993605147944E-16, 0.0000000000000000000 ) ) ;
#33 = LINE ( 'NONE', #113, #1 ) ;
#34 = APPROVAL_PERSON_ORGANIZATION ( #44, #106, #78 ) ;
#35 = AXIS2_PLACEMENT_3D ( 'NONE', #3, #129, #145 ) ;
#36 = EDGE_LOOP ( 'NONE', ( #5, #38 ) ) ;
#37 = DIRECTION ( 'NONE',  ( 0.0000000000000000000, 0.0000000000000000000, 1.000000000000000000 ) ) ;
#38 = ORIENTED_EDGE ( 'NONE', *, *, #168, .F. ) ;
#39 =( GEOMETRIC_REPRESENTATION_CONTEXT ( 3 ) GLOBAL_UNCERTAINTY_ASSIGNED_CONTEXT ( ( #25 ) ) GLOBAL_UNIT_ASSIGNED_CONTEXT ( ( #15, #175, #52 ) ) REPRESENTATION_CONTEXT ( 'NONE', 'WORKASPACE' ) );
#40 = MECHANICAL_CONTEXT ( 'NONE', #174, 'mechanical' ) ;
#41 = ORIENTED_EDGE ( 'NONE', *, *, #63, .F. ) ;
#42 = VERTEX_POINT ( 'NONE', #152 ) ;
#43 = CYLINDRICAL_SURFACE ( 'NONE', #86, 7.500000000000000000 ) ;
#44 = PERSON_AND_ORGANIZATION ( #126, #162 ) ;
#45 = DIRECTION ( 'NONE',  ( 0.0000000000000000000, 0.0000000000000000000, 1.000000000000000000 ) ) ;
#46 = CARTESIAN_POINT ( 'NONE',  ( -7.500000000000000000, 9.184850993605147944E-16, -3.000000000000000000 ) ) ;
#47 = CLOSED_SHELL ( 'NONE', ( #151, #58, #90, #2 ) ) ;
#48 = DATE_TIME_ROLE ( 'creation_date' ) ;
#49 = MANIFOLD_SOLID_BREP ( 'Extrude1', #47 ) ;
#50 = APPROVAL_ROLE ( '' ) ;
#51 = FACE_OUTER_BOUND ( 'NONE', #144, .T. ) ;
#52 =( NAMED_UNIT ( * ) SI_UNIT ( $, .STERADIAN. ) SOLID_ANGLE_UNIT ( ) );
#53 = CIRCLE ( 'NONE', #141, 7.500000000000000000 ) ;
#54 = ADVANCED_BREP_SHAPE_REPRESENTATION ( 'Web Model 45575_13314', ( #49, #35 ), #39 ) ;
#55 = CC_DESIGN_APPROVAL ( #131, ( #132 ) ) ;
#56 = CIRCLE ( 'NONE', #163, 7.500000000000000000 ) ;
#57 = DIRECTION ( 'NONE',  ( 0.0000000000000000000, 0.0000000000000000000, 1.000000000000000000 ) ) ;
#58 = ADVANCED_FACE ( 'NONE', ( #28 ), #77, .T. ) ;
#59 = CARTESIAN_POINT ( 'NONE',  ( 0.0000000000000000000, 0.0000000000000000000, 0.0000000000000000000 ) ) ;
#60 = CARTESIAN_POINT ( 'NONE',  ( 0.0000000000000000000, 0.0000000000000000000, -3.000000000000000000 ) ) ;
#61 = LOCAL_TIME ( 16, 48, 57.00000000000000000, #93 ) ;
#62 = APPLICATION_CONTEXT ( 'configuration controlled 3d designs of mechanical parts and assemblies' ) ;
#63 = EDGE_CURVE ( 'NONE', #18, #10, #56, .T. ) ;
#64 = ORIENTED_EDGE ( 'NONE', *, *, #160, .F. ) ;
#65 = PERSON_AND_ORGANIZATION ( #126, #162 ) ;
#66 = CC_DESIGN_PERSON_AND_ORGANIZATION_ASSIGNMENT ( #88, #89, ( #124 ) ) ;
#67 = COORDINATED_UNIVERSAL_TIME_OFFSET ( 5, 0, .BEHIND. ) ;
#68 = CC_DESIGN_APPROVAL ( #106, ( #136 ) ) ;
#69 = AXIS2_PLACEMENT_3D ( 'NONE', #128, #127, #74 ) ;
#70 = PERSON_AND_ORGANIZATION ( #126, #162 ) ;
#71 = DIRECTION ( 'NONE',  ( 1.000000000000000000, 0.0000000000000000000, 0.0000000000000000000 ) ) ;
#72 = VERTEX_POINT ( 'NONE', #95 ) ;
#73 = CALENDAR_DATE ( 2020, 3, 11 ) ;
#74 = DIRECTION ( 'NONE',  ( 1.000000000000000000, 0.0000000000000000000, -0.0000000000000000000 ) ) ;
#75 = APPROVAL_DATE_TIME ( #143, #26 ) ;
#76 = CC_DESIGN_PERSON_AND_ORGANIZATION_ASSIGNMENT ( #105, #169, ( #132 ) ) ;
#77 = CYLINDRICAL_SURFACE ( 'NONE', #123, 7.500000000000000000 ) ;
#78 = APPROVAL_ROLE ( '' ) ;
#79 = ORIENTED_EDGE ( 'NONE', *, *, #160, .T. ) ;
#80 = DIRECTION ( 'NONE',  ( 0.0000000000000000000, 0.0000000000000000000, 1.000000000000000000 ) ) ;
#81 = CARTESIAN_POINT ( 'NONE',  ( 0.0000000000000000000, 0.0000000000000000000, 0.0000000000000000000 ) ) ;
#82 = CC_DESIGN_SECURITY_CLASSIFICATION ( #136, ( #132 ) ) ;
#83 = LOCAL_TIME ( 16, 48, 57.00000000000000000, #67 ) ;
#84 = APPROVAL_ROLE ( '' ) ;
#85 = DATE_AND_TIME ( #73, #61 ) ;
#86 = AXIS2_PLACEMENT_3D ( 'NONE', #60, #80, #139 ) ;
#87 = APPROVAL_STATUS ( 'not_yet_approved' ) ;
#88 = PERSON_AND_ORGANIZATION ( #126, #162 ) ;
#89 = PERSON_AND_ORGANIZATION_ROLE ( 'creator' ) ;
#90 = ADVANCED_FACE ( 'NONE', ( #23 ), #109, .F. ) ;
#91 = LOCAL_TIME ( 16, 48, 57.00000000000000000, #170 ) ;
#92 = DIRECTION ( 'NONE',  ( 1.000000000000000000, 0.0000000000000000000, 0.0000000000000000000 ) ) ;
#93 = COORDINATED_UNIVERSAL_TIME_OFFSET ( 5, 0, .BEHIND. ) ;
#94 = CC_DESIGN_DATE_AND_TIME_ASSIGNMENT ( #148, #8, ( #136 ) ) ;
#95 = CARTESIAN_POINT ( 'NONE',  ( -7.500000000000000000, 9.184850993605147944E-16, -3.000000000000000000 ) ) ;
#96 = PLANE ( 'NONE',  #69 ) ;
#97 = VECTOR ( 'NONE', #110, 1000.000000000000000 ) ;
#98 = EDGE_LOOP ( 'NONE', ( #64, #17, #108, #138 ) ) ;
#99 = CARTESIAN_POINT ( 'NONE',  ( 0.0000000000000000000, 0.0000000000000000000, -3.000000000000000000 ) ) ;
#100 = AXIS2_PLACEMENT_3D ( 'NONE', #115, #112, #31 ) ;
#101 = CALENDAR_DATE ( 2020, 3, 11 ) ;
#102 = PERSON_AND_ORGANIZATION_ROLE ( 'design_owner' ) ;
#103 = ORIENTED_EDGE ( 'NONE', *, *, #63, .T. ) ;
#104 = PERSON_AND_ORGANIZATION_ROLE ( 'classification_officer' ) ;
#105 = PERSON_AND_ORGANIZATION ( #126, #162 ) ;
#106 = APPROVAL ( #12, 'UNSPECIFIED' ) ;
#107 = CIRCLE ( 'NONE', #171, 7.500000000000000000 ) ;
#108 = ORIENTED_EDGE ( 'NONE', *, *, #135, .T. ) ;
#109 = PLANE ( 'NONE',  #100 ) ;
#110 = DIRECTION ( 'NONE',  ( 0.0000000000000000000, 0.0000000000000000000, 1.000000000000000000 ) ) ;
#111 = LINE ( 'NONE', #46, #97 ) ;
#112 = DIRECTION ( 'NONE',  ( 0.0000000000000000000, 0.0000000000000000000, 1.000000000000000000 ) ) ;
#113 = CARTESIAN_POINT ( 'NONE',  ( 7.500000000000000000, 0.0000000000000000000, -3.000000000000000000 ) ) ;
#114 = PRODUCT_RELATED_PRODUCT_CATEGORY ( 'detail', '', ( #6 ) ) ;
#115 = CARTESIAN_POINT ( 'NONE',  ( 0.0000000000000000000, 0.0000000000000000000, -3.000000000000000000 ) ) ;
#116 = COORDINATED_UNIVERSAL_TIME_OFFSET ( 5, 0, .BEHIND. ) ;
#117 = CALENDAR_DATE ( 2020, 3, 11 ) ;
#118 = COORDINATED_UNIVERSAL_TIME_OFFSET ( 5, 0, .BEHIND. ) ;
#119 = APPLICATION_PROTOCOL_DEFINITION ( 'international standard', 'config_control_design', 1994, #174 ) ;
#120 = APPROVAL_STATUS ( 'not_yet_approved' ) ;
#121 = APPROVAL_PERSON_ORGANIZATION ( #157, #26, #50 ) ;
#122 = CARTESIAN_POINT ( 'NONE',  ( 0.0000000000000000000, 0.0000000000000000000, -3.000000000000000000 ) ) ;
#123 = AXIS2_PLACEMENT_3D ( 'NONE', #99, #22, #153 ) ;
#124 = PRODUCT_DEFINITION ( 'UNKNOWN', '', #132, #134 ) ;
#125 = CC_DESIGN_APPROVAL ( #26, ( #124 ) ) ;
#126 = PERSON ( 'UNSPECIFIED', 'UNSPECIFIED', 'UNSPECIFIED', ('UNSPECIFIED'), ('UNSPECIFIED'), ('UNSPECIFIED') ) ;
#127 = DIRECTION ( 'NONE',  ( 0.0000000000000000000, 0.0000000000000000000, 1.000000000000000000 ) ) ;
#128 = CARTESIAN_POINT ( 'NONE',  ( 0.0000000000000000000, 0.0000000000000000000, 0.0000000000000000000 ) ) ;
#129 = DIRECTION ( 'NONE',  ( 0.0000000000000000000, 0.0000000000000000000, 1.000000000000000000 ) ) ;
#130 = DIRECTION ( 'NONE',  ( 0.0000000000000000000, 0.0000000000000000000, 1.000000000000000000 ) ) ;
#131 = APPROVAL ( #87, 'UNSPECIFIED' ) ;
#132 = PRODUCT_DEFINITION_FORMATION_WITH_SPECIFIED_SOURCE ( 'ANY', '', #6, .NOT_KNOWN. ) ;
#133 = DIRECTION ( 'NONE',  ( 1.000000000000000000, 0.0000000000000000000, 0.0000000000000000000 ) ) ;
#134 = DESIGN_CONTEXT ( 'detailed design', #62, 'design' ) ;
#135 = EDGE_CURVE ( 'NONE', #42, #18, #33, .T. ) ;
#136 = SECURITY_CLASSIFICATION ( '', '', #158 ) ;
#137 = FACE_OUTER_BOUND ( 'NONE', #140, .T. ) ;
#138 = ORIENTED_EDGE ( 'NONE', *, *, #14, .F. ) ;
#139 = DIRECTION ( 'NONE',  ( 1.000000000000000000, 0.0000000000000000000, 0.0000000000000000000 ) ) ;
#140 = EDGE_LOOP ( 'NONE', ( #103, #154 ) ) ;
#141 = AXIS2_PLACEMENT_3D ( 'NONE', #59, #156, #71 ) ;
#142 = EDGE_CURVE ( 'NONE', #42, #72, #107, .T. ) ;
#143 = DATE_AND_TIME ( #101, #149 ) ;
#144 = EDGE_LOOP ( 'NONE', ( #19, #79, #41, #16 ) ) ;
#145 = DIRECTION ( 'NONE',  ( 1.000000000000000000, 0.0000000000000000000, 0.0000000000000000000 ) ) ;
#146 = CALENDAR_DATE ( 2020, 3, 11 ) ;
#147 = CC_DESIGN_PERSON_AND_ORGANIZATION_ASSIGNMENT ( #65, #104, ( #136 ) ) ;
#148 = DATE_AND_TIME ( #117, #91 ) ;
#149 = LOCAL_TIME ( 16, 48, 57.00000000000000000, #118 ) ;
#150 = PERSON_AND_ORGANIZATION ( #126, #162 ) ;
#151 = ADVANCED_FACE ( 'NONE', ( #51 ), #43, .T. ) ;
#152 = CARTESIAN_POINT ( 'NONE',  ( 7.500000000000000000, 0.0000000000000000000, -3.000000000000000000 ) ) ;
#153 = DIRECTION ( 'NONE',  ( 1.000000000000000000, 0.0000000000000000000, 0.0000000000000000000 ) ) ;
#154 = ORIENTED_EDGE ( 'NONE', *, *, #14, .T. ) ;
#155 = SHAPE_DEFINITION_REPRESENTATION ( #161, #54 ) ;
#156 = DIRECTION ( 'NONE',  ( 0.0000000000000000000, 0.0000000000000000000, 1.000000000000000000 ) ) ;
#157 = PERSON_AND_ORGANIZATION ( #126, #162 ) ;
#158 = SECURITY_CLASSIFICATION_LEVEL ( 'unclassified' ) ;
#159 = APPROVAL_DATE_TIME ( #85, #106 ) ;
#160 = EDGE_CURVE ( 'NONE', #72, #10, #111, .T. ) ;
#161 = PRODUCT_DEFINITION_SHAPE ( 'NONE', 'NONE',  #124 ) ;
#162 = ORGANIZATION ( 'UNSPECIFIED', 'UNSPECIFIED', '' ) ;
#163 = AXIS2_PLACEMENT_3D ( 'NONE', #81, #130, #92 ) ;
#164 = PERSON_AND_ORGANIZATION ( #126, #162 ) ;
#165 = DIRECTION ( 'NONE',  ( 1.000000000000000000, 0.0000000000000000000, 0.0000000000000000000 ) ) ;
#166 = DATE_AND_TIME ( #146, #9 ) ;
#167 = PERSON_AND_ORGANIZATION_ROLE ( 'creator' ) ;
#168 = EDGE_CURVE ( 'NONE', #72, #42, #173, .T. ) ;
#169 = PERSON_AND_ORGANIZATION_ROLE ( 'design_supplier' ) ;
#170 = COORDINATED_UNIVERSAL_TIME_OFFSET ( 5, 0, .BEHIND. ) ;
#171 = AXIS2_PLACEMENT_3D ( 'NONE', #21, #57, #165 ) ;
#172 = DATE_AND_TIME ( #13, #83 ) ;
#173 = CIRCLE ( 'NONE', #20, 7.500000000000000000 ) ;
#174 = APPLICATION_CONTEXT ( 'configuration controlled 3d designs of mechanical parts and assemblies' ) ;
#175 =( NAMED_UNIT ( * ) PLANE_ANGLE_UNIT ( ) SI_UNIT ( $, .RADIAN. ) );
ENDSEC;
END-ISO-10303-21;
