ISO-10303-21;
HEADER;
FILE_DESCRIPTION (( 'STEP AP203' ),
    '1' );
FILE_NAME ('Web Model 12455_12461.step',
    '2019-11-01T14:41:17',
    ( '' ),
    ( '' ),
    'SwSTEP 2.0',
    'SolidWorks 2018',
    '' );
FILE_SCHEMA (( 'CONFIG_CONTROL_DESIGN' ));
ENDSEC;

DATA;
#1 = DATE_TIME_ROLE ( 'creation_date' ) ;
#2 = DATE_AND_TIME ( #61, #166 ) ;
#3 = EDGE_LOOP ( 'NONE', ( #174, #52 ) ) ;
#4 = FACE_OUTER_BOUND ( 'NONE', #48, .T. ) ;
#5 = DIRECTION ( 'NONE',  ( -1.000000000000000000, -0.0000000000000000000, -0.0000000000000000000 ) ) ;
#6 = PERSON_AND_ORGANIZATION ( #140, #70 ) ;
#7 = CC_DESIGN_APPROVAL ( #34, ( #55 ) ) ;
#8 = DIRECTION ( 'NONE',  ( 0.0000000000000000000, 0.0000000000000000000, -1.000000000000000000 ) ) ;
#9 = PLANE ( 'NONE',  #99 ) ;
#10 = CIRCLE ( 'NONE', #85, 25.00000000000000000 ) ;
#11 = APPLICATION_PROTOCOL_DEFINITION ( 'international standard', 'config_control_design', 1994, #134 ) ;
#12 = APPROVAL_ROLE ( '' ) ;
#13 = EDGE_CURVE ( 'NONE', #56, #59, #126, .T. ) ;
#14 = APPROVAL_ROLE ( '' ) ;
#15 = CIRCLE ( 'NONE', #71, 25.00000000000000000 ) ;
#16 = CC_DESIGN_DATE_AND_TIME_ASSIGNMENT ( #80, #141, ( #55 ) ) ;
#17 = CC_DESIGN_PERSON_AND_ORGANIZATION_ASSIGNMENT ( #103, #159, ( #74 ) ) ;
#18 = DIRECTION ( 'NONE',  ( 1.000000000000000000, 0.0000000000000000000, 0.0000000000000000000 ) ) ;
#19 = DIRECTION ( 'NONE',  ( 0.0000000000000000000, 0.0000000000000000000, 1.000000000000000000 ) ) ;
#20 = AXIS2_PLACEMENT_3D ( 'NONE', #89, #113, #18 ) ;
#21 = CARTESIAN_POINT ( 'NONE',  ( 0.8000000000000000444, 3.061616997868383043E-15, -25.00000000000000000 ) ) ;
#22 = MECHANICAL_CONTEXT ( 'NONE', #134, 'mechanical' ) ;
#23 = ADVANCED_FACE ( 'NONE', ( #4 ), #9, .F. ) ;
#24 = APPROVAL_ROLE ( '' ) ;
#25 = ORIENTED_EDGE ( 'NONE', *, *, #13, .T. ) ;
#26 = APPROVAL ( #121, 'UNSPECIFIED' ) ;
#27 = PERSON_AND_ORGANIZATION_ROLE ( 'creator' ) ;
#28 = ORIENTED_EDGE ( 'NONE', *, *, #147, .F. ) ;
#29 = APPLICATION_CONTEXT ( 'configuration controlled 3d designs of mechanical parts and assemblies' ) ;
#30 = CARTESIAN_POINT ( 'NONE',  ( 0.8000000000000000444, 0.0000000000000000000, 0.0000000000000000000 ) ) ;
#31 = DIRECTION ( 'NONE',  ( 0.0000000000000000000, 0.0000000000000000000, -1.000000000000000000 ) ) ;
#32 = ORIENTED_EDGE ( 'NONE', *, *, #35, .F. ) ;
#33 = APPROVAL_STATUS ( 'not_yet_approved' ) ;
#34 = APPROVAL ( #36, 'UNSPECIFIED' ) ;
#35 = EDGE_CURVE ( 'NONE', #56, #84, #15, .T. ) ;
#36 = APPROVAL_STATUS ( 'not_yet_approved' ) ;
#37 = COORDINATED_UNIVERSAL_TIME_OFFSET ( 5, 0, .BEHIND. ) ;
#38 = ADVANCED_BREP_SHAPE_REPRESENTATION ( 'Web Model 12455_12461', ( #92, #20 ), #64 ) ;
#39 = CALENDAR_DATE ( 2019, 1, 11 ) ;
#40 = DIRECTION ( 'NONE',  ( 0.0000000000000000000, 0.0000000000000000000, -1.000000000000000000 ) ) ;
#41 = CARTESIAN_POINT ( 'NONE',  ( -0.8000000000000000444, 0.0000000000000000000, 0.0000000000000000000 ) ) ;
#42 = PLANE ( 'NONE',  #158 ) ;
#43 = DIRECTION ( 'NONE',  ( 0.0000000000000000000, 0.0000000000000000000, 1.000000000000000000 ) ) ;
#44 = COORDINATED_UNIVERSAL_TIME_OFFSET ( 5, 0, .BEHIND. ) ;
#45 =( NAMED_UNIT ( * ) SI_UNIT ( $, .STERADIAN. ) SOLID_ANGLE_UNIT ( ) );
#46 = DESIGN_CONTEXT ( 'detailed design', #29, 'design' ) ;
#47 = CYLINDRICAL_SURFACE ( 'NONE', #93, 25.00000000000000000 ) ;
#48 = EDGE_LOOP ( 'NONE', ( #150, #28 ) ) ;
#49 = CC_DESIGN_APPROVAL ( #164, ( #145 ) ) ;
#50 = LOCAL_TIME ( 10, 41, 17.00000000000000000, #118 ) ;
#51 = PRODUCT_DEFINITION_SHAPE ( 'NONE', 'NONE',  #74 ) ;
#52 = ORIENTED_EDGE ( 'NONE', *, *, #105, .T. ) ;
#53 = CARTESIAN_POINT ( 'NONE',  ( -0.8000000000000000444, 3.061616997868383043E-15, -25.00000000000000000 ) ) ;
#54 = DIRECTION ( 'NONE',  ( 0.0000000000000000000, 0.0000000000000000000, -1.000000000000000000 ) ) ;
#55 = SECURITY_CLASSIFICATION ( '', '', #72 ) ;
#56 = VERTEX_POINT ( 'NONE', #165 ) ;
#57 = CALENDAR_DATE ( 2019, 1, 11 ) ;
#58 = CARTESIAN_POINT ( 'NONE',  ( 0.8000000000000000444, 3.061616997868383043E-15, -25.00000000000000000 ) ) ;
#59 = VERTEX_POINT ( 'NONE', #86 ) ;
#60 = PERSON_AND_ORGANIZATION_ROLE ( 'classification_officer' ) ;
#61 = CALENDAR_DATE ( 2019, 1, 11 ) ;
#62 = UNCERTAINTY_MEASURE_WITH_UNIT (LENGTH_MEASURE( 1.000000000000000082E-05 ), #119, 'distance_accuracy_value', 'NONE');
#63 = EDGE_LOOP ( 'NONE', ( #161, #32, #25, #168 ) ) ;
#64 =( GEOMETRIC_REPRESENTATION_CONTEXT ( 3 ) GLOBAL_UNCERTAINTY_ASSIGNED_CONTEXT ( ( #62 ) ) GLOBAL_UNIT_ASSIGNED_CONTEXT ( ( #119, #87, #45 ) ) REPRESENTATION_CONTEXT ( 'NONE', 'WORKASPACE' ) );
#65 = VERTEX_POINT ( 'NONE', #53 ) ;
#66 = DIRECTION ( 'NONE',  ( 0.0000000000000000000, 0.0000000000000000000, -1.000000000000000000 ) ) ;
#67 = APPROVAL_DATE_TIME ( #2, #164 ) ;
#68 = APPROVAL_DATE_TIME ( #95, #26 ) ;
#69 = CC_DESIGN_PERSON_AND_ORGANIZATION_ASSIGNMENT ( #83, #60, ( #55 ) ) ;
#70 = ORGANIZATION ( 'UNSPECIFIED', 'UNSPECIFIED', '' ) ;
#71 = AXIS2_PLACEMENT_3D ( 'NONE', #130, #148, #40 ) ;
#72 = SECURITY_CLASSIFICATION_LEVEL ( 'unclassified' ) ;
#73 = PERSON_AND_ORGANIZATION ( #140, #70 ) ;
#74 = PRODUCT_DEFINITION ( 'UNKNOWN', '', #145, #46 ) ;
#75 = PERSON_AND_ORGANIZATION ( #140, #70 ) ;
#76 = CARTESIAN_POINT ( 'NONE',  ( 0.8000000000000000444, 0.0000000000000000000, 0.0000000000000000000 ) ) ;
#77 = DIRECTION ( 'NONE',  ( -1.000000000000000000, -0.0000000000000000000, -0.0000000000000000000 ) ) ;
#78 = ADVANCED_FACE ( 'NONE', ( #156 ), #106, .T. ) ;
#79 = LINE ( 'NONE', #21, #143 ) ;
#80 = DATE_AND_TIME ( #57, #104 ) ;
#81 = CC_DESIGN_PERSON_AND_ORGANIZATION_ASSIGNMENT ( #138, #102, ( #145 ) ) ;
#82 = ORIENTED_EDGE ( 'NONE', *, *, #147, .T. ) ;
#83 = PERSON_AND_ORGANIZATION ( #140, #70 ) ;
#84 = VERTEX_POINT ( 'NONE', #58 ) ;
#85 = AXIS2_PLACEMENT_3D ( 'NONE', #167, #98, #31 ) ;
#86 = CARTESIAN_POINT ( 'NONE',  ( -0.8000000000000000444, 0.0000000000000000000, 25.00000000000000000 ) ) ;
#87 =( NAMED_UNIT ( * ) PLANE_ANGLE_UNIT ( ) SI_UNIT ( $, .RADIAN. ) );
#88 = DIRECTION ( 'NONE',  ( -1.000000000000000000, -0.0000000000000000000, -0.0000000000000000000 ) ) ;
#89 = CARTESIAN_POINT ( 'NONE',  ( 0.0000000000000000000, 0.0000000000000000000, 0.0000000000000000000 ) ) ;
#90 = ORIENTED_EDGE ( 'NONE', *, *, #105, .F. ) ;
#91 = FACE_OUTER_BOUND ( 'NONE', #63, .T. ) ;
#92 = MANIFOLD_SOLID_BREP ( 'Boss-Extrude1', #157 ) ;
#93 = AXIS2_PLACEMENT_3D ( 'NONE', #30, #117, #43 ) ;
#94 = CIRCLE ( 'NONE', #109, 25.00000000000000000 ) ;
#95 = DATE_AND_TIME ( #39, #101 ) ;
#96 = SHAPE_DEFINITION_REPRESENTATION ( #51, #38 ) ;
#97 = LOCAL_TIME ( 10, 41, 17.00000000000000000, #44 ) ;
#98 = DIRECTION ( 'NONE',  ( 1.000000000000000000, 0.0000000000000000000, 0.0000000000000000000 ) ) ;
#99 = AXIS2_PLACEMENT_3D ( 'NONE', #41, #149, #54 ) ;
#100 = CC_DESIGN_DATE_AND_TIME_ASSIGNMENT ( #110, #1, ( #74 ) ) ;
#101 = LOCAL_TIME ( 10, 41, 17.00000000000000000, #125 ) ;
#102 = PERSON_AND_ORGANIZATION_ROLE ( 'design_supplier' ) ;
#103 = PERSON_AND_ORGANIZATION ( #140, #70 ) ;
#104 = LOCAL_TIME ( 10, 41, 17.00000000000000000, #37 ) ;
#105 = EDGE_CURVE ( 'NONE', #84, #56, #94, .T. ) ;
#106 = CYLINDRICAL_SURFACE ( 'NONE', #144, 25.00000000000000000 ) ;
#107 = CALENDAR_DATE ( 2019, 1, 11 ) ;
#108 = CALENDAR_DATE ( 2019, 1, 11 ) ;
#109 = AXIS2_PLACEMENT_3D ( 'NONE', #76, #172, #115 ) ;
#110 = DATE_AND_TIME ( #108, #97 ) ;
#111 = PRODUCT_RELATED_PRODUCT_CATEGORY ( 'detail', '', ( #128 ) ) ;
#112 = PERSON_AND_ORGANIZATION_ROLE ( 'design_owner' ) ;
#113 = DIRECTION ( 'NONE',  ( 0.0000000000000000000, 0.0000000000000000000, 1.000000000000000000 ) ) ;
#114 = FACE_OUTER_BOUND ( 'NONE', #3, .T. ) ;
#115 = DIRECTION ( 'NONE',  ( 0.0000000000000000000, 0.0000000000000000000, -1.000000000000000000 ) ) ;
#116 = ORIENTED_EDGE ( 'NONE', *, *, #13, .F. ) ;
#117 = DIRECTION ( 'NONE',  ( -1.000000000000000000, -0.0000000000000000000, -0.0000000000000000000 ) ) ;
#118 = COORDINATED_UNIVERSAL_TIME_OFFSET ( 5, 0, .BEHIND. ) ;
#119 =( LENGTH_UNIT ( ) NAMED_UNIT ( * ) SI_UNIT ( .MILLI., .METRE. ) );
#120 = ORIENTED_EDGE ( 'NONE', *, *, #175, .T. ) ;
#121 = APPROVAL_STATUS ( 'not_yet_approved' ) ;
#122 = PERSON_AND_ORGANIZATION ( #140, #70 ) ;
#123 = PERSON_AND_ORGANIZATION ( #140, #70 ) ;
#124 = CC_DESIGN_PERSON_AND_ORGANIZATION_ASSIGNMENT ( #75, #112, ( #128 ) ) ;
#125 = COORDINATED_UNIVERSAL_TIME_OFFSET ( 5, 0, .BEHIND. ) ;
#126 = LINE ( 'NONE', #127, #131 ) ;
#127 = CARTESIAN_POINT ( 'NONE',  ( 0.8000000000000000444, 0.0000000000000000000, 25.00000000000000000 ) ) ;
#128 = PRODUCT ( 'Web Model 12455_12461', 'Web Model 12455_12461', '', ( #22 ) ) ;
#129 = COORDINATED_UNIVERSAL_TIME_OFFSET ( 5, 0, .BEHIND. ) ;
#130 = CARTESIAN_POINT ( 'NONE',  ( 0.8000000000000000444, 0.0000000000000000000, 0.0000000000000000000 ) ) ;
#131 = VECTOR ( 'NONE', #5, 1000.000000000000000 ) ;
#132 = CARTESIAN_POINT ( 'NONE',  ( 0.8000000000000000444, 0.0000000000000000000, 0.0000000000000000000 ) ) ;
#133 = CARTESIAN_POINT ( 'NONE',  ( 0.8000000000000000444, 0.0000000000000000000, 0.0000000000000000000 ) ) ;
#134 = APPLICATION_CONTEXT ( 'configuration controlled 3d designs of mechanical parts and assemblies' ) ;
#135 = EDGE_LOOP ( 'NONE', ( #90, #120, #82, #116 ) ) ;
#136 = ADVANCED_FACE ( 'NONE', ( #114 ), #42, .T. ) ;
#137 = APPROVAL_PERSON_ORGANIZATION ( #6, #34, #12 ) ;
#138 = PERSON_AND_ORGANIZATION ( #140, #70 ) ;
#139 = APPLICATION_PROTOCOL_DEFINITION ( 'international standard', 'config_control_design', 1994, #29 ) ;
#140 = PERSON ( 'UNSPECIFIED', 'UNSPECIFIED', 'UNSPECIFIED', ('UNSPECIFIED'), ('UNSPECIFIED'), ('UNSPECIFIED') ) ;
#141 = DATE_TIME_ROLE ( 'classification_date' ) ;
#142 = CIRCLE ( 'NONE', #173, 25.00000000000000000 ) ;
#143 = VECTOR ( 'NONE', #77, 1000.000000000000000 ) ;
#144 = AXIS2_PLACEMENT_3D ( 'NONE', #133, #88, #19 ) ;
#145 = PRODUCT_DEFINITION_FORMATION_WITH_SPECIFIED_SOURCE ( 'ANY', '', #128, .NOT_KNOWN. ) ;
#146 = APPROVAL_PERSON_ORGANIZATION ( #123, #26, #24 ) ;
#147 = EDGE_CURVE ( 'NONE', #65, #59, #142, .T. ) ;
#148 = DIRECTION ( 'NONE',  ( 1.000000000000000000, 0.0000000000000000000, 0.0000000000000000000 ) ) ;
#149 = DIRECTION ( 'NONE',  ( 1.000000000000000000, 0.0000000000000000000, 0.0000000000000000000 ) ) ;
#150 = ORIENTED_EDGE ( 'NONE', *, *, #162, .F. ) ;
#151 = DATE_AND_TIME ( #107, #50 ) ;
#152 = DIRECTION ( 'NONE',  ( 1.000000000000000000, 0.0000000000000000000, 0.0000000000000000000 ) ) ;
#153 = APPROVAL_PERSON_ORGANIZATION ( #73, #164, #14 ) ;
#154 = CC_DESIGN_SECURITY_CLASSIFICATION ( #55, ( #145 ) ) ;
#155 = ADVANCED_FACE ( 'NONE', ( #91 ), #47, .T. ) ;
#156 = FACE_OUTER_BOUND ( 'NONE', #135, .T. ) ;
#157 = CLOSED_SHELL ( 'NONE', ( #78, #155, #136, #23 ) ) ;
#158 = AXIS2_PLACEMENT_3D ( 'NONE', #132, #169, #66 ) ;
#159 = PERSON_AND_ORGANIZATION_ROLE ( 'creator' ) ;
#160 = CC_DESIGN_PERSON_AND_ORGANIZATION_ASSIGNMENT ( #122, #27, ( #145 ) ) ;
#161 = ORIENTED_EDGE ( 'NONE', *, *, #175, .F. ) ;
#162 = EDGE_CURVE ( 'NONE', #59, #65, #10, .T. ) ;
#163 = APPROVAL_DATE_TIME ( #151, #34 ) ;
#164 = APPROVAL ( #33, 'UNSPECIFIED' ) ;
#165 = CARTESIAN_POINT ( 'NONE',  ( 0.8000000000000000444, 0.0000000000000000000, 25.00000000000000000 ) ) ;
#166 = LOCAL_TIME ( 10, 41, 17.00000000000000000, #129 ) ;
#167 = CARTESIAN_POINT ( 'NONE',  ( -0.8000000000000000444, 0.0000000000000000000, 0.0000000000000000000 ) ) ;
#168 = ORIENTED_EDGE ( 'NONE', *, *, #162, .T. ) ;
#169 = DIRECTION ( 'NONE',  ( 1.000000000000000000, 0.0000000000000000000, 0.0000000000000000000 ) ) ;
#170 = CC_DESIGN_APPROVAL ( #26, ( #74 ) ) ;
#171 = CARTESIAN_POINT ( 'NONE',  ( -0.8000000000000000444, 0.0000000000000000000, 0.0000000000000000000 ) ) ;
#172 = DIRECTION ( 'NONE',  ( 1.000000000000000000, 0.0000000000000000000, 0.0000000000000000000 ) ) ;
#173 = AXIS2_PLACEMENT_3D ( 'NONE', #171, #152, #8 ) ;
#174 = ORIENTED_EDGE ( 'NONE', *, *, #35, .T. ) ;
#175 = EDGE_CURVE ( 'NONE', #84, #65, #79, .T. ) ;
ENDSEC;
END-ISO-10303-21;
