ISO-10303-21;
HEADER;
FILE_DESCRIPTION (( 'STEP AP203' ),
    '1' );
FILE_NAME ('Web Model 14964_18329.step',
    '2021-06-28T15:41:59',
    ( '' ),
    ( '' ),
    'SwSTEP 2.0',
    'SolidWorks 2018',
    '' );
FILE_SCHEMA (( 'CONFIG_CONTROL_DESIGN' ));
ENDSEC;

DATA;
#1 = PERSON_AND_ORGANIZATION_ROLE ( 'design_supplier' ) ;
#2 = CARTESIAN_POINT ( 'NONE',  ( 2.000000000000000000, 0.000000000000000000, 0.000000000000000000 ) ) ;
#3 = CALENDAR_DATE ( 2021, 28, 6 ) ;
#4 = PERSON_AND_ORGANIZATION ( #13, #89 ) ;
#5 = DATE_AND_TIME ( #113, #11 ) ;
#6 = CC_DESIGN_DATE_AND_TIME_ASSIGNMENT ( #16, #120, ( #21 ) ) ;
#7 = EDGE_LOOP ( 'NONE', ( #154, #157, #60, #135 ) ) ;
#8 = DIRECTION ( 'NONE',  ( 0.000000000000000000, 0.000000000000000000, -1.000000000000000000 ) ) ;
#9 = CARTESIAN_POINT ( 'NONE',  ( 2.000000000000000000, 0.000000000000000000, 0.000000000000000000 ) ) ;
#10 = APPROVAL ( #91, 'UNSPECIFIED' ) ;
#11 = LOCAL_TIME ( 11, 41, 59.00000000000000000, #59 ) ;
#12 = CARTESIAN_POINT ( 'NONE',  ( -2.000000000000000000, 0.000000000000000000, 0.000000000000000000 ) ) ;
#13 = PERSON ( 'UNSPECIFIED', 'UNSPECIFIED', 'UNSPECIFIED', ('UNSPECIFIED'), ('UNSPECIFIED'), ('UNSPECIFIED') ) ;
#14 = APPROVAL_STATUS ( 'not_yet_approved' ) ;
#15 = AXIS2_PLACEMENT_3D ( 'NONE', #103, #54, #76 ) ;
#16 = DATE_AND_TIME ( #29, #174 ) ;
#17 = APPROVAL_PERSON_ORGANIZATION ( #35, #159, #146 ) ;
#18 = AXIS2_PLACEMENT_3D ( 'NONE', #9, #69, #171 ) ;
#19 = EDGE_CURVE ( 'NONE', #37, #110, #68, .T. ) ;
#20 = CYLINDRICAL_SURFACE ( 'NONE', #162, 12.50000000000000000 ) ;
#21 = SECURITY_CLASSIFICATION ( '', '', #62 ) ;
#22 = LOCAL_TIME ( 11, 41, 59.00000000000000000, #67 ) ;
#23 = ADVANCED_FACE ( 'NONE', ( #143 ), #20, .T. ) ;
#24 = LINE ( 'NONE', #116, #108 ) ;
#25 = MECHANICAL_CONTEXT ( 'NONE', #88, 'mechanical' ) ;
#26 = APPROVAL_DATE_TIME ( #79, #10 ) ;
#27 = DIRECTION ( 'NONE',  ( 1.000000000000000000, 0.000000000000000000, 0.000000000000000000 ) ) ;
#28 = PRODUCT_DEFINITION ( 'UNKNOWN', '', #107, #165 ) ;
#29 = CALENDAR_DATE ( 2021, 28, 6 ) ;
#30 = ORIENTED_EDGE ( 'NONE', *, *, #19, .F. ) ;
#31 = EDGE_CURVE ( 'NONE', #110, #37, #164, .T. ) ;
#32 = CARTESIAN_POINT ( 'NONE',  ( -2.000000000000000000, 0.000000000000000000, 0.000000000000000000 ) ) ;
#33 = PERSON_AND_ORGANIZATION_ROLE ( 'classification_officer' ) ;
#34 = ORIENTED_EDGE ( 'NONE', *, *, #31, .T. ) ;
#35 = PERSON_AND_ORGANIZATION ( #13, #89 ) ;
#36 = PRODUCT_RELATED_PRODUCT_CATEGORY ( 'detail', '', ( #161 ) ) ;
#37 = VERTEX_POINT ( 'NONE', #137 ) ;
#38 = PERSON_AND_ORGANIZATION ( #13, #89 ) ;
#39 = AXIS2_PLACEMENT_3D ( 'NONE', #51, #172, #8 ) ;
#40 = COORDINATED_UNIVERSAL_TIME_OFFSET ( 5, 0, .BEHIND. ) ;
#41 = AXIS2_PLACEMENT_3D ( 'NONE', #142, #70, #52 ) ;
#42 = APPROVAL_DATE_TIME ( #134, #61 ) ;
#43 =( NAMED_UNIT ( * ) PLANE_ANGLE_UNIT ( ) SI_UNIT ( $, .RADIAN. ) );
#44 = CARTESIAN_POINT ( 'NONE',  ( 2.000000000000000000, 0.000000000000000000, 0.000000000000000000 ) ) ;
#45 = APPROVAL_STATUS ( 'not_yet_approved' ) ;
#46 = CYLINDRICAL_SURFACE ( 'NONE', #18, 12.50000000000000000 ) ;
#47 = CC_DESIGN_PERSON_AND_ORGANIZATION_ASSIGNMENT ( #73, #94, ( #107 ) ) ;
#48 = AXIS2_PLACEMENT_3D ( 'NONE', #12, #129, #75 ) ;
#49 = CC_DESIGN_PERSON_AND_ORGANIZATION_ASSIGNMENT ( #55, #119, ( #28 ) ) ;
#50 = SHAPE_DEFINITION_REPRESENTATION ( #127, #64 ) ;
#51 = CARTESIAN_POINT ( 'NONE',  ( 2.000000000000000000, 0.000000000000000000, 0.000000000000000000 ) ) ;
#52 = DIRECTION ( 'NONE',  ( 0.000000000000000000, 0.000000000000000000, -1.000000000000000000 ) ) ;
#53 = CC_DESIGN_APPROVAL ( #61, ( #21 ) ) ;
#54 = DIRECTION ( 'NONE',  ( 1.000000000000000000, 0.000000000000000000, 0.000000000000000000 ) ) ;
#55 = PERSON_AND_ORGANIZATION ( #13, #89 ) ;
#56 = DIRECTION ( 'NONE',  ( 0.000000000000000000, 0.000000000000000000, -1.000000000000000000 ) ) ;
#57 = DIRECTION ( 'NONE',  ( 1.000000000000000000, 0.000000000000000000, 0.000000000000000000 ) ) ;
#58 =( GEOMETRIC_REPRESENTATION_CONTEXT ( 3 ) GLOBAL_UNCERTAINTY_ASSIGNED_CONTEXT ( ( #96 ) ) GLOBAL_UNIT_ASSIGNED_CONTEXT ( ( #156, #43, #87 ) ) REPRESENTATION_CONTEXT ( 'NONE', 'WORKASPACE' ) );
#59 = COORDINATED_UNIVERSAL_TIME_OFFSET ( 5, 0, .BEHIND. ) ;
#60 = ORIENTED_EDGE ( 'NONE', *, *, #72, .T. ) ;
#61 = APPROVAL ( #45, 'UNSPECIFIED' ) ;
#62 = SECURITY_CLASSIFICATION_LEVEL ( 'unclassified' ) ;
#63 = LOCAL_TIME ( 11, 41, 59.00000000000000000, #83 ) ;
#64 = ADVANCED_BREP_SHAPE_REPRESENTATION ( 'Web Model 14964_18329', ( #86, #85 ), #58 ) ;
#65 = EDGE_CURVE ( 'NONE', #95, #130, #126, .T. ) ;
#66 = CC_DESIGN_PERSON_AND_ORGANIZATION_ASSIGNMENT ( #147, #141, ( #161 ) ) ;
#67 = COORDINATED_UNIVERSAL_TIME_OFFSET ( 5, 0, .BEHIND. ) ;
#68 = CIRCLE ( 'NONE', #111, 12.50000000000000000 ) ;
#69 = DIRECTION ( 'NONE',  ( -1.000000000000000000, -0.000000000000000000, -0.000000000000000000 ) ) ;
#70 = DIRECTION ( 'NONE',  ( 1.000000000000000000, 0.000000000000000000, 0.000000000000000000 ) ) ;
#71 = APPROVAL_ROLE ( '' ) ;
#72 = EDGE_CURVE ( 'NONE', #130, #37, #24, .T. ) ;
#73 = PERSON_AND_ORGANIZATION ( #13, #89 ) ;
#74 = ORIENTED_EDGE ( 'NONE', *, *, #72, .F. ) ;
#75 = DIRECTION ( 'NONE',  ( 0.000000000000000000, 0.000000000000000000, -1.000000000000000000 ) ) ;
#76 = DIRECTION ( 'NONE',  ( 0.000000000000000000, 0.000000000000000000, -1.000000000000000000 ) ) ;
#77 = CARTESIAN_POINT ( 'NONE',  ( 2.000000000000000000, 0.000000000000000000, 12.50000000000000000 ) ) ;
#78 = DIRECTION ( 'NONE',  ( -1.000000000000000000, -0.000000000000000000, -0.000000000000000000 ) ) ;
#79 = DATE_AND_TIME ( #123, #22 ) ;
#80 = DATE_TIME_ROLE ( 'creation_date' ) ;
#81 = CC_DESIGN_SECURITY_CLASSIFICATION ( #21, ( #107 ) ) ;
#82 = CLOSED_SHELL ( 'NONE', ( #136, #23, #169, #153 ) ) ;
#83 = COORDINATED_UNIVERSAL_TIME_OFFSET ( 5, 0, .BEHIND. ) ;
#84 = CIRCLE ( 'NONE', #168, 12.50000000000000000 ) ;
#85 = AXIS2_PLACEMENT_3D ( 'NONE', #170, #155, #57 ) ;
#86 = MANIFOLD_SOLID_BREP ( 'Boss-Extrude1', #82 ) ;
#87 =( NAMED_UNIT ( * ) SI_UNIT ( $, .STERADIAN. ) SOLID_ANGLE_UNIT ( ) );
#88 = APPLICATION_CONTEXT ( 'configuration controlled 3d designs of mechanical parts and assemblies' ) ;
#89 = ORGANIZATION ( 'UNSPECIFIED', 'UNSPECIFIED', '' ) ;
#90 = PLANE ( 'NONE',  #39 ) ;
#91 = APPROVAL_STATUS ( 'not_yet_approved' ) ;
#92 = APPROVAL_PERSON_ORGANIZATION ( #160, #10, #71 ) ;
#93 = ORIENTED_EDGE ( 'NONE', *, *, #31, .F. ) ;
#94 = PERSON_AND_ORGANIZATION_ROLE ( 'creator' ) ;
#95 = VERTEX_POINT ( 'NONE', #118 ) ;
#96 = UNCERTAINTY_MEASURE_WITH_UNIT (LENGTH_MEASURE( 1.000000000000000082E-05 ), #156, 'distance_accuracy_value', 'NONE');
#97 = DATE_AND_TIME ( #167, #63 ) ;
#98 = EDGE_LOOP ( 'NONE', ( #112, #133, #34, #74 ) ) ;
#99 = APPLICATION_PROTOCOL_DEFINITION ( 'international standard', 'config_control_design', 1994, #88 ) ;
#100 = FACE_OUTER_BOUND ( 'NONE', #98, .T. ) ;
#101 = DIRECTION ( 'NONE',  ( -1.000000000000000000, -0.000000000000000000, -0.000000000000000000 ) ) ;
#102 = CC_DESIGN_PERSON_AND_ORGANIZATION_ASSIGNMENT ( #104, #33, ( #21 ) ) ;
#103 = CARTESIAN_POINT ( 'NONE',  ( -2.000000000000000000, 0.000000000000000000, 0.000000000000000000 ) ) ;
#104 = PERSON_AND_ORGANIZATION ( #13, #89 ) ;
#105 = ORIENTED_EDGE ( 'NONE', *, *, #65, .T. ) ;
#106 = DIRECTION ( 'NONE',  ( -1.000000000000000000, -0.000000000000000000, -0.000000000000000000 ) ) ;
#107 = PRODUCT_DEFINITION_FORMATION_WITH_SPECIFIED_SOURCE ( 'ANY', '', #161, .NOT_KNOWN. ) ;
#108 = VECTOR ( 'NONE', #78, 1000.000000000000000 ) ;
#109 = APPROVAL_DATE_TIME ( #5, #159 ) ;
#110 = VERTEX_POINT ( 'NONE', #145 ) ;
#111 = AXIS2_PLACEMENT_3D ( 'NONE', #32, #131, #158 ) ;
#112 = ORIENTED_EDGE ( 'NONE', *, *, #65, .F. ) ;
#113 = CALENDAR_DATE ( 2021, 28, 6 ) ;
#114 = EDGE_CURVE ( 'NONE', #95, #110, #121, .T. ) ;
#115 = EDGE_LOOP ( 'NONE', ( #175, #105 ) ) ;
#116 = CARTESIAN_POINT ( 'NONE',  ( 2.000000000000000000, 0.000000000000000000, 12.50000000000000000 ) ) ;
#117 = APPLICATION_CONTEXT ( 'configuration controlled 3d designs of mechanical parts and assemblies' ) ;
#118 = CARTESIAN_POINT ( 'NONE',  ( 2.000000000000000000, 1.530808498934191521E-15, -12.50000000000000000 ) ) ;
#119 = PERSON_AND_ORGANIZATION_ROLE ( 'creator' ) ;
#120 = DATE_TIME_ROLE ( 'classification_date' ) ;
#121 = LINE ( 'NONE', #128, #124 ) ;
#122 = LOCAL_TIME ( 11, 41, 59.00000000000000000, #125 ) ;
#123 = CALENDAR_DATE ( 2021, 28, 6 ) ;
#124 = VECTOR ( 'NONE', #101, 1000.000000000000000 ) ;
#125 = COORDINATED_UNIVERSAL_TIME_OFFSET ( 5, 0, .BEHIND. ) ;
#126 = CIRCLE ( 'NONE', #41, 12.50000000000000000 ) ;
#127 = PRODUCT_DEFINITION_SHAPE ( 'NONE', 'NONE',  #28 ) ;
#128 = CARTESIAN_POINT ( 'NONE',  ( 2.000000000000000000, 1.530808498934191521E-15, -12.50000000000000000 ) ) ;
#129 = DIRECTION ( 'NONE',  ( 1.000000000000000000, 0.000000000000000000, 0.000000000000000000 ) ) ;
#130 = VERTEX_POINT ( 'NONE', #77 ) ;
#131 = DIRECTION ( 'NONE',  ( 1.000000000000000000, 0.000000000000000000, 0.000000000000000000 ) ) ;
#132 = EDGE_LOOP ( 'NONE', ( #30, #93 ) ) ;
#133 = ORIENTED_EDGE ( 'NONE', *, *, #114, .T. ) ;
#134 = DATE_AND_TIME ( #3, #122 ) ;
#135 = ORIENTED_EDGE ( 'NONE', *, *, #19, .T. ) ;
#136 = ADVANCED_FACE ( 'NONE', ( #100 ), #46, .T. ) ;
#137 = CARTESIAN_POINT ( 'NONE',  ( -2.000000000000000000, 0.000000000000000000, 12.50000000000000000 ) ) ;
#138 = APPROVAL_PERSON_ORGANIZATION ( #38, #61, #144 ) ;
#139 = FACE_OUTER_BOUND ( 'NONE', #132, .T. ) ;
#140 = PLANE ( 'NONE',  #48 ) ;
#141 = PERSON_AND_ORGANIZATION_ROLE ( 'design_owner' ) ;
#142 = CARTESIAN_POINT ( 'NONE',  ( 2.000000000000000000, 0.000000000000000000, 0.000000000000000000 ) ) ;
#143 = FACE_OUTER_BOUND ( 'NONE', #7, .T. ) ;
#144 = APPROVAL_ROLE ( '' ) ;
#145 = CARTESIAN_POINT ( 'NONE',  ( -2.000000000000000000, 1.530808498934191521E-15, -12.50000000000000000 ) ) ;
#146 = APPROVAL_ROLE ( '' ) ;
#147 = PERSON_AND_ORGANIZATION ( #13, #89 ) ;
#148 = DIRECTION ( 'NONE',  ( 0.000000000000000000, 0.000000000000000000, 1.000000000000000000 ) ) ;
#149 = APPLICATION_PROTOCOL_DEFINITION ( 'international standard', 'config_control_design', 1994, #117 ) ;
#150 = EDGE_CURVE ( 'NONE', #130, #95, #84, .T. ) ;
#151 = CC_DESIGN_APPROVAL ( #10, ( #28 ) ) ;
#152 = CC_DESIGN_PERSON_AND_ORGANIZATION_ASSIGNMENT ( #4, #1, ( #107 ) ) ;
#153 = ADVANCED_FACE ( 'NONE', ( #139 ), #140, .F. ) ;
#154 = ORIENTED_EDGE ( 'NONE', *, *, #114, .F. ) ;
#155 = DIRECTION ( 'NONE',  ( 0.000000000000000000, 0.000000000000000000, 1.000000000000000000 ) ) ;
#156 =( LENGTH_UNIT ( ) NAMED_UNIT ( * ) SI_UNIT ( .MILLI., .METRE. ) );
#157 = ORIENTED_EDGE ( 'NONE', *, *, #150, .F. ) ;
#158 = DIRECTION ( 'NONE',  ( 0.000000000000000000, 0.000000000000000000, -1.000000000000000000 ) ) ;
#159 = APPROVAL ( #14, 'UNSPECIFIED' ) ;
#160 = PERSON_AND_ORGANIZATION ( #13, #89 ) ;
#161 = PRODUCT ( 'Web Model 14964_18329', 'Web Model 14964_18329', '', ( #25 ) ) ;
#162 = AXIS2_PLACEMENT_3D ( 'NONE', #2, #106, #148 ) ;
#163 = CC_DESIGN_DATE_AND_TIME_ASSIGNMENT ( #97, #80, ( #28 ) ) ;
#164 = CIRCLE ( 'NONE', #15, 12.50000000000000000 ) ;
#165 = DESIGN_CONTEXT ( 'detailed design', #117, 'design' ) ;
#166 = FACE_OUTER_BOUND ( 'NONE', #115, .T. ) ;
#167 = CALENDAR_DATE ( 2021, 28, 6 ) ;
#168 = AXIS2_PLACEMENT_3D ( 'NONE', #44, #27, #56 ) ;
#169 = ADVANCED_FACE ( 'NONE', ( #166 ), #90, .T. ) ;
#170 = CARTESIAN_POINT ( 'NONE',  ( 0.000000000000000000, 0.000000000000000000, 0.000000000000000000 ) ) ;
#171 = DIRECTION ( 'NONE',  ( 0.000000000000000000, 0.000000000000000000, 1.000000000000000000 ) ) ;
#172 = DIRECTION ( 'NONE',  ( 1.000000000000000000, 0.000000000000000000, 0.000000000000000000 ) ) ;
#173 = CC_DESIGN_APPROVAL ( #159, ( #107 ) ) ;
#174 = LOCAL_TIME ( 11, 41, 59.00000000000000000, #40 ) ;
#175 = ORIENTED_EDGE ( 'NONE', *, *, #150, .T. ) ;
ENDSEC;
END-ISO-10303-21;
