ISO-10303-21;
HEADER;
FILE_DESCRIPTION (( 'STEP AP203' ),
    '1' );
FILE_NAME ('Web Model 45567_20763.step',
    '2022-03-15T17:11:21',
    ( '' ),
    ( '' ),
    'SwSTEP 2.0',
    'SolidWorks 2021',
    '' );
FILE_SCHEMA (( 'CONFIG_CONTROL_DESIGN' ));
ENDSEC;

DATA;
#1 = PERSON_AND_ORGANIZATION ( #134, #25 ) ;
#2 = APPROVAL_DATE_TIME ( #21, #115 ) ;
#3 = ADVANCED_FACE ( 'NONE', ( #151 ), #83, .T. ) ;
#4 = ADVANCED_FACE ( 'NONE', ( #117 ), #120, .T. ) ;
#5 = DIRECTION ( 'NONE',  ( 0.000000000000000000, 0.000000000000000000, 1.000000000000000000 ) ) ;
#6 = APPROVAL_ROLE ( '' ) ;
#7 = CARTESIAN_POINT ( 'NONE',  ( 0.000000000000000000, 0.000000000000000000, 0.000000000000000000 ) ) ;
#8 = SECURITY_CLASSIFICATION ( '', '', #127 ) ;
#9 = PRODUCT ( 'Web Model 45567_20763', 'Web Model 45567_20763', '', ( #75 ) ) ;
#10 = COORDINATED_UNIVERSAL_TIME_OFFSET ( 5, 0, .BEHIND. ) ;
#11 = ORIENTED_EDGE ( 'NONE', *, *, #65, .T. ) ;
#12 = EDGE_LOOP ( 'NONE', ( #135, #107 ) ) ;
#13 = VERTEX_POINT ( 'NONE', #51 ) ;
#14 = DIRECTION ( 'NONE',  ( -0.000000000000000000, -0.000000000000000000, -1.000000000000000000 ) ) ;
#15 = PERSON_AND_ORGANIZATION ( #134, #25 ) ;
#16 = DIRECTION ( 'NONE',  ( 1.000000000000000000, 0.000000000000000000, -0.000000000000000000 ) ) ;
#17 = FACE_OUTER_BOUND ( 'NONE', #12, .T. ) ;
#18 = LOCAL_TIME ( 13, 11, 21.00000000000000000, #62 ) ;
#19 = PERSON_AND_ORGANIZATION_ROLE ( 'classification_officer' ) ;
#20 = CC_DESIGN_PERSON_AND_ORGANIZATION_ASSIGNMENT ( #45, #95, ( #30 ) ) ;
#21 = DATE_AND_TIME ( #47, #82 ) ;
#22 = ORIENTED_EDGE ( 'NONE', *, *, #56, .T. ) ;
#23 = VERTEX_POINT ( 'NONE', #166 ) ;
#24 = ORIENTED_EDGE ( 'NONE', *, *, #61, .F. ) ;
#25 = ORGANIZATION ( 'UNSPECIFIED', 'UNSPECIFIED', '' ) ;
#26 = EDGE_CURVE ( 'NONE', #66, #39, #101, .T. ) ;
#27 = CYLINDRICAL_SURFACE ( 'NONE', #59, 3.175000000000001155 ) ;
#28 = DIRECTION ( 'NONE',  ( 1.000000000000000000, 0.000000000000000000, 0.000000000000000000 ) ) ;
#29 = PERSON_AND_ORGANIZATION ( #134, #25 ) ;
#30 = PRODUCT_DEFINITION_FORMATION_WITH_SPECIFIED_SOURCE ( 'ANY', '', #9, .NOT_KNOWN. ) ;
#31 = LINE ( 'NONE', #157, #105 ) ;
#32 = DIRECTION ( 'NONE',  ( 1.000000000000000000, 0.000000000000000000, 0.000000000000000000 ) ) ;
#33 = PERSON_AND_ORGANIZATION ( #134, #25 ) ;
#34 = CLOSED_SHELL ( 'NONE', ( #3, #155, #4, #103 ) ) ;
#35 = DATE_AND_TIME ( #114, #54 ) ;
#36 = CALENDAR_DATE ( 2022, 15, 3 ) ;
#37 = PRODUCT_RELATED_PRODUCT_CATEGORY ( 'detail', '', ( #9 ) ) ;
#38 = PRODUCT_DEFINITION ( 'UNKNOWN', '', #30, #164 ) ;
#39 = VERTEX_POINT ( 'NONE', #108 ) ;
#40 = DIRECTION ( 'NONE',  ( 0.000000000000000000, 0.000000000000000000, 1.000000000000000000 ) ) ;
#41 =( NAMED_UNIT ( * ) PLANE_ANGLE_UNIT ( ) SI_UNIT ( $, .RADIAN. ) );
#42 = DIRECTION ( 'NONE',  ( 0.000000000000000000, 0.000000000000000000, 1.000000000000000000 ) ) ;
#43 = PRODUCT_DEFINITION_SHAPE ( 'NONE', 'NONE',  #38 ) ;
#44 = DATE_AND_TIME ( #160, #165 ) ;
#45 = PERSON_AND_ORGANIZATION ( #134, #25 ) ;
#46 = CIRCLE ( 'NONE', #169, 3.175000000000001155 ) ;
#47 = CALENDAR_DATE ( 2022, 15, 3 ) ;
#48 = CIRCLE ( 'NONE', #130, 3.175000000000001155 ) ;
#49 = DIRECTION ( 'NONE',  ( 1.000000000000000000, 0.000000000000000000, -0.000000000000000000 ) ) ;
#50 = ORIENTED_EDGE ( 'NONE', *, *, #56, .F. ) ;
#51 = CARTESIAN_POINT ( 'NONE',  ( -3.175000000000001155, 0.000000000000000000, 0.000000000000000000 ) ) ;
#52 = PERSON_AND_ORGANIZATION_ROLE ( 'design_owner' ) ;
#53 = LOCAL_TIME ( 13, 11, 21.00000000000000000, #55 ) ;
#54 = LOCAL_TIME ( 13, 11, 21.00000000000000000, #60 ) ;
#55 = COORDINATED_UNIVERSAL_TIME_OFFSET ( 5, 0, .BEHIND. ) ;
#56 = EDGE_CURVE ( 'NONE', #39, #23, #100, .T. ) ;
#57 = PERSON_AND_ORGANIZATION ( #134, #25 ) ;
#58 = PERSON_AND_ORGANIZATION_ROLE ( 'design_supplier' ) ;
#59 = AXIS2_PLACEMENT_3D ( 'NONE', #98, #74, #70 ) ;
#60 = COORDINATED_UNIVERSAL_TIME_OFFSET ( 5, 0, .BEHIND. ) ;
#61 = EDGE_CURVE ( 'NONE', #66, #13, #31, .T. ) ;
#62 = COORDINATED_UNIVERSAL_TIME_OFFSET ( 5, 0, .BEHIND. ) ;
#63 = APPROVAL_PERSON_ORGANIZATION ( #92, #168, #104 ) ;
#64 = EDGE_LOOP ( 'NONE', ( #81, #22, #11, #24 ) ) ;
#65 = EDGE_CURVE ( 'NONE', #23, #13, #46, .T. ) ;
#66 = VERTEX_POINT ( 'NONE', #171 ) ;
#67 = CIRCLE ( 'NONE', #72, 3.175000000000001155 ) ;
#68 = ORIENTED_EDGE ( 'NONE', *, *, #126, .T. ) ;
#69 = DIRECTION ( 'NONE',  ( -1.000000000000000000, 0.000000000000000000, 0.000000000000000000 ) ) ;
#70 = DIRECTION ( 'NONE',  ( -1.000000000000000000, 0.000000000000000000, 0.000000000000000000 ) ) ;
#71 = APPLICATION_PROTOCOL_DEFINITION ( 'international standard', 'config_control_design', 1994, #143 ) ;
#72 = AXIS2_PLACEMENT_3D ( 'NONE', #124, #121, #32 ) ;
#73 = PERSON_AND_ORGANIZATION_ROLE ( 'creator' ) ;
#74 = DIRECTION ( 'NONE',  ( -0.000000000000000000, -0.000000000000000000, -1.000000000000000000 ) ) ;
#75 = MECHANICAL_CONTEXT ( 'NONE', #146, 'mechanical' ) ;
#76 = DATE_TIME_ROLE ( 'classification_date' ) ;
#77 = APPROVAL_STATUS ( 'not_yet_approved' ) ;
#78 = CC_DESIGN_APPROVAL ( #115, ( #30 ) ) ;
#79 = ORIENTED_EDGE ( 'NONE', *, *, #26, .T. ) ;
#80 = CARTESIAN_POINT ( 'NONE',  ( 0.000000000000000000, 0.000000000000000000, 2.000000000000000000 ) ) ;
#81 = ORIENTED_EDGE ( 'NONE', *, *, #163, .F. ) ;
#82 = LOCAL_TIME ( 13, 11, 21.00000000000000000, #10 ) ;
#83 = CYLINDRICAL_SURFACE ( 'NONE', #94, 3.175000000000001155 ) ;
#84 = CARTESIAN_POINT ( 'NONE',  ( 3.175000000000001155, 3.888253587292847561E-16, 2.000000000000000000 ) ) ;
#85 = DIRECTION ( 'NONE',  ( 0.000000000000000000, 0.000000000000000000, 1.000000000000000000 ) ) ;
#86 = CC_DESIGN_APPROVAL ( #118, ( #38 ) ) ;
#87 = DIRECTION ( 'NONE',  ( -0.000000000000000000, -0.000000000000000000, -1.000000000000000000 ) ) ;
#88 = PLANE ( 'NONE',  #152 ) ;
#89 = COORDINATED_UNIVERSAL_TIME_OFFSET ( 5, 0, .BEHIND. ) ;
#90 = VECTOR ( 'NONE', #170, 1000.000000000000000 ) ;
#91 = CC_DESIGN_SECURITY_CLASSIFICATION ( #8, ( #30 ) ) ;
#92 = PERSON_AND_ORGANIZATION ( #134, #25 ) ;
#93 = CC_DESIGN_PERSON_AND_ORGANIZATION_ASSIGNMENT ( #29, #73, ( #38 ) ) ;
#94 = AXIS2_PLACEMENT_3D ( 'NONE', #138, #14, #69 ) ;
#95 = PERSON_AND_ORGANIZATION_ROLE ( 'creator' ) ;
#96 = EDGE_LOOP ( 'NONE', ( #79, #129 ) ) ;
#97 = ORIENTED_EDGE ( 'NONE', *, *, #61, .T. ) ;
#98 = CARTESIAN_POINT ( 'NONE',  ( 0.000000000000000000, 0.000000000000000000, 2.000000000000000000 ) ) ;
#99 = DATE_AND_TIME ( #109, #53 ) ;
#100 = LINE ( 'NONE', #84, #90 ) ;
#101 = CIRCLE ( 'NONE', #148, 3.175000000000001155 ) ;
#102 = DATE_TIME_ROLE ( 'creation_date' ) ;
#103 = ADVANCED_FACE ( 'NONE', ( #17 ), #88, .F. ) ;
#104 = APPROVAL_ROLE ( '' ) ;
#105 = VECTOR ( 'NONE', #87, 1000.000000000000000 ) ;
#106 = CC_DESIGN_PERSON_AND_ORGANIZATION_ASSIGNMENT ( #57, #52, ( #9 ) ) ;
#107 = ORIENTED_EDGE ( 'NONE', *, *, #65, .F. ) ;
#108 = CARTESIAN_POINT ( 'NONE',  ( 3.175000000000001155, 3.888253587292847561E-16, 2.000000000000000000 ) ) ;
#109 = CALENDAR_DATE ( 2022, 15, 3 ) ;
#110 = CC_DESIGN_DATE_AND_TIME_ASSIGNMENT ( #35, #76, ( #8 ) ) ;
#111 = FACE_OUTER_BOUND ( 'NONE', #132, .T. ) ;
#112 =( NAMED_UNIT ( * ) SI_UNIT ( $, .STERADIAN. ) SOLID_ANGLE_UNIT ( ) );
#113 = AXIS2_PLACEMENT_3D ( 'NONE', #153, #85, #28 ) ;
#114 = CALENDAR_DATE ( 2022, 15, 3 ) ;
#115 = APPROVAL ( #175, 'UNSPECIFIED' ) ;
#116 = SHAPE_DEFINITION_REPRESENTATION ( #43, #173 ) ;
#117 = FACE_OUTER_BOUND ( 'NONE', #96, .T. ) ;
#118 = APPROVAL ( #123, 'UNSPECIFIED' ) ;
#119 = AXIS2_PLACEMENT_3D ( 'NONE', #149, #5, #49 ) ;
#120 = PLANE ( 'NONE',  #119 ) ;
#121 = DIRECTION ( 'NONE',  ( 0.000000000000000000, 0.000000000000000000, 1.000000000000000000 ) ) ;
#122 =( GEOMETRIC_REPRESENTATION_CONTEXT ( 3 ) GLOBAL_UNCERTAINTY_ASSIGNED_CONTEXT ( ( #144 ) ) GLOBAL_UNIT_ASSIGNED_CONTEXT ( ( #172, #41, #112 ) ) REPRESENTATION_CONTEXT ( 'NONE', 'WORKASPACE' ) );
#123 = APPROVAL_STATUS ( 'not_yet_approved' ) ;
#124 = CARTESIAN_POINT ( 'NONE',  ( 0.000000000000000000, 0.000000000000000000, 2.000000000000000000 ) ) ;
#125 = DIRECTION ( 'NONE',  ( 1.000000000000000000, 0.000000000000000000, 0.000000000000000000 ) ) ;
#126 = EDGE_CURVE ( 'NONE', #13, #23, #48, .T. ) ;
#127 = SECURITY_CLASSIFICATION_LEVEL ( 'unclassified' ) ;
#128 = APPROVAL_ROLE ( '' ) ;
#129 = ORIENTED_EDGE ( 'NONE', *, *, #163, .T. ) ;
#130 = AXIS2_PLACEMENT_3D ( 'NONE', #7, #42, #139 ) ;
#131 = CC_DESIGN_APPROVAL ( #168, ( #8 ) ) ;
#132 = EDGE_LOOP ( 'NONE', ( #50, #147, #97, #68 ) ) ;
#133 = DIRECTION ( 'NONE',  ( 0.000000000000000000, 0.000000000000000000, 1.000000000000000000 ) ) ;
#134 = PERSON ( 'UNSPECIFIED', 'UNSPECIFIED', 'UNSPECIFIED', ('UNSPECIFIED'), ('UNSPECIFIED'), ('UNSPECIFIED') ) ;
#135 = ORIENTED_EDGE ( 'NONE', *, *, #126, .F. ) ;
#136 = APPROVAL_PERSON_ORGANIZATION ( #15, #118, #6 ) ;
#137 = CC_DESIGN_PERSON_AND_ORGANIZATION_ASSIGNMENT ( #161, #58, ( #30 ) ) ;
#138 = CARTESIAN_POINT ( 'NONE',  ( 0.000000000000000000, 0.000000000000000000, 2.000000000000000000 ) ) ;
#139 = DIRECTION ( 'NONE',  ( 1.000000000000000000, 0.000000000000000000, 0.000000000000000000 ) ) ;
#140 = CARTESIAN_POINT ( 'NONE',  ( 0.000000000000000000, 0.000000000000000000, 0.000000000000000000 ) ) ;
#141 = DIRECTION ( 'NONE',  ( 0.000000000000000000, 0.000000000000000000, 1.000000000000000000 ) ) ;
#142 = APPLICATION_PROTOCOL_DEFINITION ( 'international standard', 'config_control_design', 1994, #146 ) ;
#143 = APPLICATION_CONTEXT ( 'configuration controlled 3d designs of mechanical parts and assemblies' ) ;
#144 = UNCERTAINTY_MEASURE_WITH_UNIT (LENGTH_MEASURE( 1.000000000000000082E-05 ), #172, 'distance_accuracy_value', 'NONE');
#145 = APPROVAL_DATE_TIME ( #162, #168 ) ;
#146 = APPLICATION_CONTEXT ( 'configuration controlled 3d designs of mechanical parts and assemblies' ) ;
#147 = ORIENTED_EDGE ( 'NONE', *, *, #26, .F. ) ;
#148 = AXIS2_PLACEMENT_3D ( 'NONE', #80, #133, #158 ) ;
#149 = CARTESIAN_POINT ( 'NONE',  ( 0.000000000000000000, 0.000000000000000000, 2.000000000000000000 ) ) ;
#150 = CC_DESIGN_DATE_AND_TIME_ASSIGNMENT ( #44, #102, ( #38 ) ) ;
#151 = FACE_OUTER_BOUND ( 'NONE', #64, .T. ) ;
#152 = AXIS2_PLACEMENT_3D ( 'NONE', #174, #141, #16 ) ;
#153 = CARTESIAN_POINT ( 'NONE',  ( 0.000000000000000000, 0.000000000000000000, 0.000000000000000000 ) ) ;
#154 = APPROVAL_DATE_TIME ( #99, #118 ) ;
#155 = ADVANCED_FACE ( 'NONE', ( #111 ), #27, .T. ) ;
#156 = APPROVAL_PERSON_ORGANIZATION ( #33, #115, #128 ) ;
#157 = CARTESIAN_POINT ( 'NONE',  ( -3.175000000000001155, 0.000000000000000000, 2.000000000000000000 ) ) ;
#158 = DIRECTION ( 'NONE',  ( 1.000000000000000000, 0.000000000000000000, 0.000000000000000000 ) ) ;
#159 = CC_DESIGN_PERSON_AND_ORGANIZATION_ASSIGNMENT ( #1, #19, ( #8 ) ) ;
#160 = CALENDAR_DATE ( 2022, 15, 3 ) ;
#161 = PERSON_AND_ORGANIZATION ( #134, #25 ) ;
#162 = DATE_AND_TIME ( #36, #18 ) ;
#163 = EDGE_CURVE ( 'NONE', #39, #66, #67, .T. ) ;
#164 = DESIGN_CONTEXT ( 'detailed design', #143, 'design' ) ;
#165 = LOCAL_TIME ( 13, 11, 21.00000000000000000, #89 ) ;
#166 = CARTESIAN_POINT ( 'NONE',  ( 3.175000000000001155, 3.888253587292847561E-16, 0.000000000000000000 ) ) ;
#167 = MANIFOLD_SOLID_BREP ( 'Boss-Extrude1', #34 ) ;
#168 = APPROVAL ( #77, 'UNSPECIFIED' ) ;
#169 = AXIS2_PLACEMENT_3D ( 'NONE', #140, #40, #125 ) ;
#170 = DIRECTION ( 'NONE',  ( -0.000000000000000000, -0.000000000000000000, -1.000000000000000000 ) ) ;
#171 = CARTESIAN_POINT ( 'NONE',  ( -3.175000000000001155, 0.000000000000000000, 2.000000000000000000 ) ) ;
#172 =( LENGTH_UNIT ( ) NAMED_UNIT ( * ) SI_UNIT ( .MILLI., .METRE. ) );
#173 = ADVANCED_BREP_SHAPE_REPRESENTATION ( 'Web Model 45567_20763', ( #167, #113 ), #122 ) ;
#174 = CARTESIAN_POINT ( 'NONE',  ( 0.000000000000000000, 0.000000000000000000, 0.000000000000000000 ) ) ;
#175 = APPROVAL_STATUS ( 'not_yet_approved' ) ;
ENDSEC;
END-ISO-10303-21;
