ISO-10303-21;
HEADER;
FILE_DESCRIPTION (( 'STEP AP203' ),
    '1' );
FILE_NAME ('Web Model 47189_47541.step',
    '2017-07-13T14:27:43',
    ( '' ),
    ( '' ),
    'SwSTEP 2.0',
    'SolidWorks 2016',
    '' );
FILE_SCHEMA (( 'CONFIG_CONTROL_DESIGN' ));
ENDSEC;

DATA;
#1 = EDGE_CURVE ( 'NONE', #80, #158, #200, .T. ) ;
#2 = CARTESIAN_POINT ( 'NONE',  ( 30.00000000000000700, -10.00000000000000200, 10.00000000000000000 ) ) ;
#3 = DIRECTION ( 'NONE',  ( 1.734723475976807100E-016, -1.000000000000000000, 0.0000000000000000000 ) ) ;
#4 = DATE_AND_TIME ( #77, #151 ) ;
#5 = DIRECTION ( 'NONE',  ( -0.0000000000000000000, 0.0000000000000000000, 1.000000000000000000 ) ) ;
#6 = PLANE ( 'NONE',  #152 ) ;
#7 = ORIENTED_EDGE ( 'NONE', *, *, #285, .T. ) ;
#8 = PERSON_AND_ORGANIZATION_ROLE ( 'creator' ) ;
#9 = CARTESIAN_POINT ( 'NONE',  ( 10.00000000000000200, -10.00000000000000200, 10.00000000000000000 ) ) ;
#10 = VECTOR ( 'NONE', #119, 1000.000000000000000 ) ;
#11 = PLANE ( 'NONE',  #221 ) ;
#12 = EDGE_LOOP ( 'NONE', ( #147, #141, #46, #300 ) ) ;
#13 = DIRECTION ( 'NONE',  ( -1.000000000000000000, 0.0000000000000000000, -0.0000000000000000000 ) ) ;
#14 = PERSON_AND_ORGANIZATION ( #275, #73 ) ;
#15 = CARTESIAN_POINT ( 'NONE',  ( -10.00000000000000200, 9.999999999999998200, 10.00000000000000000 ) ) ;
#16 = ADVANCED_FACE ( 'NONE', ( #274 ), #167, .F. ) ;
#17 = EDGE_CURVE ( 'NONE', #23, #115, #265, .T. ) ;
#18 = AXIS2_PLACEMENT_3D ( 'NONE', #65, #297, #127 ) ;
#19 = LINE ( 'NONE', #343, #87 ) ;
#20 = ORIENTED_EDGE ( 'NONE', *, *, #33, .T. ) ;
#21 = PERSON_AND_ORGANIZATION ( #275, #73 ) ;
#22 = EDGE_CURVE ( 'NONE', #115, #336, #51, .T. ) ;
#23 = VERTEX_POINT ( 'NONE', #83 ) ;
#24 = SHAPE_DEFINITION_REPRESENTATION ( #103, #47 ) ;
#25 = FACE_OUTER_BOUND ( 'NONE', #49, .T. ) ;
#26 = VERTEX_POINT ( 'NONE', #111 ) ;
#27 = COORDINATED_UNIVERSAL_TIME_OFFSET ( 5, 0, .BEHIND. ) ;
#28 = DIRECTION ( 'NONE',  ( 0.7071067811865476800, -0.7071067811865474600, 0.0000000000000000000 ) ) ;
#29 = ORIENTED_EDGE ( 'NONE', *, *, #130, .F. ) ;
#30 = SECURITY_CLASSIFICATION_LEVEL ( 'unclassified' ) ;
#31 = VECTOR ( 'NONE', #250, 1000.000000000000000 ) ;
#32 = FACE_OUTER_BOUND ( 'NONE', #12, .T. ) ;
#33 = EDGE_CURVE ( 'NONE', #288, #123, #190, .T. ) ;
#34 = ORIENTED_EDGE ( 'NONE', *, *, #243, .T. ) ;
#35 = DIRECTION ( 'NONE',  ( -0.0000000000000000000, -0.0000000000000000000, -1.000000000000000000 ) ) ;
#36 = DIRECTION ( 'NONE',  ( -1.000000000000000000, 0.0000000000000000000, -0.0000000000000000000 ) ) ;
#37 = EDGE_CURVE ( 'NONE', #158, #352, #44, .T. ) ;
#38 = CARTESIAN_POINT ( 'NONE',  ( 10.00000000000000200, -10.00000000000000200, 10.00000000000000000 ) ) ;
#39 = DIRECTION ( 'NONE',  ( 1.000000000000000000, 0.0000000000000000000, 0.0000000000000000000 ) ) ;
#40 = DIRECTION ( 'NONE',  ( 0.0000000000000000000, -0.0000000000000000000, 1.000000000000000000 ) ) ;
#41 = DIRECTION ( 'NONE',  ( 0.7071067811865474600, 0.7071067811865475700, -0.0000000000000000000 ) ) ;
#42 = ADVANCED_FACE ( 'NONE', ( #32 ), #6, .F. ) ;
#43 = VECTOR ( 'NONE', #68, 1000.000000000000000 ) ;
#44 = LINE ( 'NONE', #280, #326 ) ;
#45 = CARTESIAN_POINT ( 'NONE',  ( -10.00000000000000200, 9.999999999999998200, -10.00000000000000000 ) ) ;
#46 = ORIENTED_EDGE ( 'NONE', *, *, #37, .F. ) ;
#47 = ADVANCED_BREP_SHAPE_REPRESENTATION ( 'Web Model 47189_47541', ( #226, #298, #55 ), #184 ) ;
#48 = DATE_AND_TIME ( #122, #195 ) ;
#49 = EDGE_LOOP ( 'NONE', ( #177, #206, #239 ) ) ;
#50 = LINE ( 'NONE', #232, #348 ) ;
#51 = LINE ( 'NONE', #193, #114 ) ;
#52 = ORIENTED_EDGE ( 'NONE', *, *, #1, .T. ) ;
#53 = EDGE_CURVE ( 'NONE', #158, #115, #105, .T. ) ;
#54 = AXIS2_PLACEMENT_3D ( 'NONE', #344, #176, #13 ) ;
#55 = AXIS2_PLACEMENT_3D ( 'NONE', #282, #60, #252 ) ;
#56 = DIRECTION ( 'NONE',  ( 0.7071067811865475700, -0.7071067811865474600, 0.0000000000000000000 ) ) ;
#57 = EDGE_CURVE ( 'NONE', #288, #269, #182, .T. ) ;
#58 = DIRECTION ( 'NONE',  ( -0.7071067811865475700, 0.7071067811865474600, 0.0000000000000000000 ) ) ;
#59 = PERSON_AND_ORGANIZATION ( #275, #73 ) ;
#60 = DIRECTION ( 'NONE',  ( 0.0000000000000000000, 0.0000000000000000000, 1.000000000000000000 ) ) ;
#61 = ORIENTED_EDGE ( 'NONE', *, *, #72, .F. ) ;
#62 = LINE ( 'NONE', #120, #43 ) ;
#63 = EDGE_LOOP ( 'NONE', ( #347, #246, #76, #69 ) ) ;
#64 = DATE_TIME_ROLE ( 'classification_date' ) ;
#65 = CARTESIAN_POINT ( 'NONE',  ( 0.0000000000000000000, 0.0000000000000000000, -10.00000000000000000 ) ) ;
#66 = CLOSED_SHELL ( 'NONE', ( #235, #16, #42, #180, #98 ) ) ;
#67 = PERSON_AND_ORGANIZATION ( #275, #73 ) ;
#68 = DIRECTION ( 'NONE',  ( 1.000000000000000000, 0.0000000000000000000, 0.0000000000000000000 ) ) ;
#69 = ORIENTED_EDGE ( 'NONE', *, *, #216, .T. ) ;
#70 = ADVANCED_FACE ( 'NONE', ( #100 ), #228, .T. ) ;
#71 = CARTESIAN_POINT ( 'NONE',  ( -10.00000000000000200, 9.999999999999998200, 10.00000000000000000 ) ) ;
#72 = EDGE_CURVE ( 'NONE', #214, #101, #310, .T. ) ;
#73 = ORGANIZATION ( 'UNSPECIFIED', 'UNSPECIFIED', '' ) ;
#74 = PERSON_AND_ORGANIZATION ( #275, #73 ) ;
#75 = CC_DESIGN_PERSON_AND_ORGANIZATION_ASSIGNMENT ( #145, #284, ( #247 ) ) ;
#76 = ORIENTED_EDGE ( 'NONE', *, *, #185, .F. ) ;
#77 = CALENDAR_DATE ( 2017, 13, 7 ) ;
#78 = ORIENTED_EDGE ( 'NONE', *, *, #130, .T. ) ;
#79 = LINE ( 'NONE', #175, #299 ) ;
#80 = VERTEX_POINT ( 'NONE', #38 ) ;
#81 = DATE_AND_TIME ( #159, #231 ) ;
#82 = CARTESIAN_POINT ( 'NONE',  ( 10.00000000000000200, -10.00000000000000200, -10.00000000000000000 ) ) ;
#83 = CARTESIAN_POINT ( 'NONE',  ( 10.00000000000000200, -10.00000000000000200, -10.00000000000000000 ) ) ;
#84 = DIRECTION ( 'NONE',  ( -0.0000000000000000000, -0.0000000000000000000, -1.000000000000000000 ) ) ;
#85 = MECHANICAL_CONTEXT ( 'NONE', #224, 'mechanical' ) ;
#86 = APPROVAL_ROLE ( '' ) ;
#87 = VECTOR ( 'NONE', #286, 1000.000000000000000 ) ;
#88 = AXIS2_PLACEMENT_3D ( 'NONE', #153, #207, #40 ) ;
#89 = DIRECTION ( 'NONE',  ( 0.0000000000000000000, -0.0000000000000000000, 1.000000000000000000 ) ) ;
#90 = EDGE_LOOP ( 'NONE', ( #312, #136, #61, #324 ) ) ;
#91 = PRODUCT_DEFINITION ( 'UNKNOWN', '', #186, #331 ) ;
#92 = CARTESIAN_POINT ( 'NONE',  ( 30.00000000000000700, -10.00000000000000200, 10.00000000000000000 ) ) ;
#93 = CARTESIAN_POINT ( 'NONE',  ( -10.00000000000000200, 9.999999999999998200, -10.00000000000000000 ) ) ;
#94 = APPROVAL_DATE_TIME ( #165, #107 ) ;
#95 = CARTESIAN_POINT ( 'NONE',  ( -10.00000000000000200, 9.999999999999998200, 10.00000000000000000 ) ) ;
#96 = EDGE_LOOP ( 'NONE', ( #7, #52, #304 ) ) ;
#97 = DATE_TIME_ROLE ( 'creation_date' ) ;
#98 = ADVANCED_FACE ( 'NONE', ( #25 ), #11, .T. ) ;
#99 = VECTOR ( 'NONE', #139, 1000.000000000000000 ) ;
#100 = FACE_OUTER_BOUND ( 'NONE', #256, .T. ) ;
#101 = VERTEX_POINT ( 'NONE', #313 ) ;
#102 = APPROVAL_PERSON_ORGANIZATION ( #74, #107, #335 ) ;
#103 = PRODUCT_DEFINITION_SHAPE ( 'NONE', 'NONE',  #91 ) ;
#104 = VECTOR ( 'NONE', #156, 1000.000000000000000 ) ;
#105 = LINE ( 'NONE', #143, #338 ) ;
#106 = ORIENTED_EDGE ( 'NONE', *, *, #339, .T. ) ;
#107 = APPROVAL ( #142, 'UNSPECIFIED' ) ;
#108 = DIRECTION ( 'NONE',  ( -0.7071067811865474600, -0.7071067811865475700, 0.0000000000000000000 ) ) ;
#109 = AXIS2_PLACEMENT_3D ( 'NONE', #277, #108, #56 ) ;
#110 = CARTESIAN_POINT ( 'NONE',  ( 30.00000000000000700, -10.00000000000000200, 10.00000000000000000 ) ) ;
#111 = CARTESIAN_POINT ( 'NONE',  ( -10.00000000000000200, 9.999999999999998200, 10.00000000000000000 ) ) ;
#112 = APPLICATION_CONTEXT ( 'configuration controlled 3d designs of mechanical parts and assemblies' ) ;
#113 = FACE_OUTER_BOUND ( 'NONE', #63, .T. ) ;
#114 = VECTOR ( 'NONE', #3, 1000.000000000000000 ) ;
#115 = VERTEX_POINT ( 'NONE', #258 ) ;
#116 = DIRECTION ( 'NONE',  ( -1.734723475976807100E-016, 1.000000000000000000, 0.0000000000000000000 ) ) ;
#117 = CARTESIAN_POINT ( 'NONE',  ( 0.0000000000000000000, 0.0000000000000000000, -10.00000000000000000 ) ) ;
#118 = CARTESIAN_POINT ( 'NONE',  ( 10.00000000000000200, -10.00000000000000200, 10.00000000000000000 ) ) ;
#119 = DIRECTION ( 'NONE',  ( 0.7071067811865475700, -0.7071067811865474600, 0.0000000000000000000 ) ) ;
#120 = CARTESIAN_POINT ( 'NONE',  ( -9.999999999999998200, -10.00000000000000200, -10.00000000000000000 ) ) ;
#121 = CARTESIAN_POINT ( 'NONE',  ( 10.00000000000000200, -10.00000000000000200, -10.00000000000000000 ) ) ;
#122 = CALENDAR_DATE ( 2017, 13, 7 ) ;
#123 = VERTEX_POINT ( 'NONE', #92 ) ;
#124 = FACE_OUTER_BOUND ( 'NONE', #210, .T. ) ;
#125 = VECTOR ( 'NONE', #306, 1000.000000000000000 ) ;
#126 = ADVANCED_FACE ( 'NONE', ( #237 ), #287, .F. ) ;
#127 = DIRECTION ( 'NONE',  ( 1.000000000000000000, 0.0000000000000000000, 0.0000000000000000000 ) ) ;
#128 = ORIENTED_EDGE ( 'NONE', *, *, #185, .T. ) ;
#129 = AXIS2_PLACEMENT_3D ( 'NONE', #15, #41, #233 ) ;
#130 = EDGE_CURVE ( 'NONE', #283, #101, #19, .T. ) ;
#131 = CC_DESIGN_APPROVAL ( #107, ( #91 ) ) ;
#132 = DATE_AND_TIME ( #208, #281 ) ;
#133 = ORIENTED_EDGE ( 'NONE', *, *, #1, .F. ) ;
#134 = VECTOR ( 'NONE', #39, 1000.000000000000000 ) ;
#135 = ORIENTED_EDGE ( 'NONE', *, *, #202, .F. ) ;
#136 = ORIENTED_EDGE ( 'NONE', *, *, #202, .T. ) ;
#137 = CARTESIAN_POINT ( 'NONE',  ( 10.00000000000000200, -10.00000000000000200, 10.00000000000000000 ) ) ;
#138 = PERSON_AND_ORGANIZATION ( #275, #73 ) ;
#139 = DIRECTION ( 'NONE',  ( -0.0000000000000000000, -0.0000000000000000000, -1.000000000000000000 ) ) ;
#140 =( LENGTH_UNIT ( ) NAMED_UNIT ( * ) SI_UNIT ( .MILLI., .METRE. ) );
#141 = ORIENTED_EDGE ( 'NONE', *, *, #339, .F. ) ;
#142 = APPROVAL_STATUS ( 'not_yet_approved' ) ;
#143 = CARTESIAN_POINT ( 'NONE',  ( -10.00000000000000200, 9.999999999999998200, 10.00000000000000000 ) ) ;
#144 = EDGE_CURVE ( 'NONE', #354, #269, #160, .T. ) ;
#145 = PERSON_AND_ORGANIZATION ( #275, #73 ) ;
#146 = CARTESIAN_POINT ( 'NONE',  ( 30.00000000000000700, -10.00000000000000200, -10.00000000000000000 ) ) ;
#147 = ORIENTED_EDGE ( 'NONE', *, *, #22, .T. ) ;
#148 = CC_DESIGN_PERSON_AND_ORGANIZATION_ASSIGNMENT ( #21, #209, ( #91 ) ) ;
#149 = DIRECTION ( 'NONE',  ( 0.0000000000000000000, -0.0000000000000000000, 1.000000000000000000 ) ) ;
#150 = PLANE ( 'NONE',  #54 ) ;
#151 = LOCAL_TIME ( 10, 27, 43.00000000000000000, #219 ) ;
#152 = AXIS2_PLACEMENT_3D ( 'NONE', #262, #290, #116 ) ;
#153 = CARTESIAN_POINT ( 'NONE',  ( -9.999999999999998200, -10.00000000000000200, 10.00000000000000000 ) ) ;
#154 = ORIENTED_EDGE ( 'NONE', *, *, #285, .F. ) ;
#155 = ADVANCED_FACE ( 'NONE', ( #157 ), #268, .F. ) ;
#156 = DIRECTION ( 'NONE',  ( 1.000000000000000000, 0.0000000000000000000, 0.0000000000000000000 ) ) ;
#157 = FACE_OUTER_BOUND ( 'NONE', #90, .T. ) ;
#158 = VERTEX_POINT ( 'NONE', #71 ) ;
#159 = CALENDAR_DATE ( 2017, 13, 7 ) ;
#160 = LINE ( 'NONE', #45, #227 ) ;
#161 = AXIS2_PLACEMENT_3D ( 'NONE', #2, #192, #28 ) ;
#162 = EDGE_CURVE ( 'NONE', #123, #283, #79, .T. ) ;
#163 = ORIENTED_EDGE ( 'NONE', *, *, #353, .T. ) ;
#164 = CC_DESIGN_DATE_AND_TIME_ASSIGNMENT ( #81, #97, ( #91 ) ) ;
#165 = DATE_AND_TIME ( #241, #315 ) ;
#166 = PLANE ( 'NONE',  #161 ) ;
#167 = PLANE ( 'NONE',  #109 ) ;
#168 = PLANE ( 'NONE',  #201 ) ;
#169 =( NAMED_UNIT ( * ) SI_UNIT ( $, .STERADIAN. ) SOLID_ANGLE_UNIT ( ) );
#170 = APPROVAL_ROLE ( '' ) ;
#171 = EDGE_LOOP ( 'NONE', ( #183, #198, #133, #34 ) ) ;
#172 = LINE ( 'NONE', #328, #99 ) ;
#173 = VECTOR ( 'NONE', #35, 1000.000000000000000 ) ;
#174 = ORIENTED_EDGE ( 'NONE', *, *, #240, .T. ) ;
#175 = CARTESIAN_POINT ( 'NONE',  ( 30.00000000000000700, -10.00000000000000200, 10.00000000000000000 ) ) ;
#176 = DIRECTION ( 'NONE',  ( 0.0000000000000000000, 0.0000000000000000000, -1.000000000000000000 ) ) ;
#177 = ORIENTED_EDGE ( 'NONE', *, *, #266, .F. ) ;
#178 = DIRECTION ( 'NONE',  ( 1.000000000000000000, 0.0000000000000000000, 0.0000000000000000000 ) ) ;
#179 = PLANE ( 'NONE',  #129 ) ;
#180 = ADVANCED_FACE ( 'NONE', ( #215 ), #150, .F. ) ;
#181 = FACE_OUTER_BOUND ( 'NONE', #191, .T. ) ;
#182 = LINE ( 'NONE', #9, #173 ) ;
#183 = ORIENTED_EDGE ( 'NONE', *, *, #17, .T. ) ;
#184 =( GEOMETRIC_REPRESENTATION_CONTEXT ( 3 ) GLOBAL_UNCERTAINTY_ASSIGNED_CONTEXT ( ( #238 ) ) GLOBAL_UNIT_ASSIGNED_CONTEXT ( ( #140, #333, #169 ) ) REPRESENTATION_CONTEXT ( 'NONE', 'WORKASPACE' ) );
#185 = EDGE_CURVE ( 'NONE', #26, #288, #245, .T. ) ;
#186 = PRODUCT_DEFINITION_FORMATION_WITH_SPECIFIED_SOURCE ( 'ANY', '', #247, .NOT_KNOWN. ) ;
#187 = AXIS2_PLACEMENT_3D ( 'NONE', #341, #257, #89 ) ;
#188 = ORIENTED_EDGE ( 'NONE', *, *, #266, .T. ) ;
#189 = VECTOR ( 'NONE', #319, 1000.000000000000000 ) ;
#190 = LINE ( 'NONE', #251, #255 ) ;
#191 = EDGE_LOOP ( 'NONE', ( #230, #29, #279, #163 ) ) ;
#192 = DIRECTION ( 'NONE',  ( -0.7071067811865474600, -0.7071067811865476800, 0.0000000000000000000 ) ) ;
#193 = CARTESIAN_POINT ( 'NONE',  ( -10.00000000000000200, 9.999999999999998200, -10.00000000000000000 ) ) ;
#194 = DIRECTION ( 'NONE',  ( 1.000000000000000000, 0.0000000000000000000, 0.0000000000000000000 ) ) ;
#195 = LOCAL_TIME ( 10, 27, 43.00000000000000000, #271 ) ;
#196 = APPLICATION_PROTOCOL_DEFINITION ( 'international standard', 'config_control_design', 1994, #224 ) ;
#197 = PERSON_AND_ORGANIZATION_ROLE ( 'design_supplier' ) ;
#198 = ORIENTED_EDGE ( 'NONE', *, *, #53, .F. ) ;
#199 = VECTOR ( 'NONE', #345, 1000.000000000000000 ) ;
#200 = LINE ( 'NONE', #137, #125 ) ;
#201 = AXIS2_PLACEMENT_3D ( 'NONE', #329, #5, #194 ) ;
#202 = EDGE_CURVE ( 'NONE', #354, #101, #303, .T. ) ;
#203 = DIRECTION ( 'NONE',  ( 0.0000000000000000000, 0.0000000000000000000, -1.000000000000000000 ) ) ;
#204 = APPROVAL ( #334, 'UNSPECIFIED' ) ;
#205 = CARTESIAN_POINT ( 'NONE',  ( -10.00000000000000200, 9.999999999999998200, 10.00000000000000000 ) ) ;
#206 = ORIENTED_EDGE ( 'NONE', *, *, #22, .F. ) ;
#207 = DIRECTION ( 'NONE',  ( 0.0000000000000000000, 1.000000000000000000, 0.0000000000000000000 ) ) ;
#208 = CALENDAR_DATE ( 2017, 13, 7 ) ;
#209 = PERSON_AND_ORGANIZATION_ROLE ( 'creator' ) ;
#210 = EDGE_LOOP ( 'NONE', ( #188, #325, #154, #106 ) ) ;
#211 = APPROVAL ( #253, 'UNSPECIFIED' ) ;
#212 = EDGE_LOOP ( 'NONE', ( #327, #217, #294, #340 ) ) ;
#213 = PERSON_AND_ORGANIZATION ( #275, #73 ) ;
#214 = VERTEX_POINT ( 'NONE', #318 ) ;
#215 = FACE_OUTER_BOUND ( 'NONE', #96, .T. ) ;
#216 = EDGE_CURVE ( 'NONE', #26, #354, #273, .T. ) ;
#217 = ORIENTED_EDGE ( 'NONE', *, *, #353, .F. ) ;
#218 = CC_DESIGN_APPROVAL ( #204, ( #186 ) ) ;
#219 = COORDINATED_UNIVERSAL_TIME_OFFSET ( 5, 0, .BEHIND. ) ;
#220 = CARTESIAN_POINT ( 'NONE',  ( 10.00000000000000200, -10.00000000000000200, -10.00000000000000000 ) ) ;
#221 = AXIS2_PLACEMENT_3D ( 'NONE', #117, #203, #36 ) ;
#222 = CARTESIAN_POINT ( 'NONE',  ( -10.00000000000000200, 9.999999999999998200, -10.00000000000000000 ) ) ;
#223 = EDGE_LOOP ( 'NONE', ( #128, #20, #317, #263 ) ) ;
#224 = APPLICATION_CONTEXT ( 'configuration controlled 3d designs of mechanical parts and assemblies' ) ;
#225 = PERSON_AND_ORGANIZATION_ROLE ( 'classification_officer' ) ;
#226 = MANIFOLD_SOLID_BREP ( 'Boss-Extrude1', #66 ) ;
#227 = VECTOR ( 'NONE', #234, 1000.000000000000000 ) ;
#228 = PLANE ( 'NONE',  #187 ) ;
#229 = CC_DESIGN_APPROVAL ( #211, ( #276 ) ) ;
#230 = ORIENTED_EDGE ( 'NONE', *, *, #72, .T. ) ;
#231 = LOCAL_TIME ( 10, 27, 43.00000000000000000, #305 ) ;
#232 = CARTESIAN_POINT ( 'NONE',  ( -10.00000000000000200, 9.999999999999998200, 10.00000000000000000 ) ) ;
#233 = DIRECTION ( 'NONE',  ( -0.7071067811865475700, 0.7071067811865474600, 0.0000000000000000000 ) ) ;
#234 = DIRECTION ( 'NONE',  ( 0.7071067811865475700, -0.7071067811865474600, 0.0000000000000000000 ) ) ;
#235 = ADVANCED_FACE ( 'NONE', ( #124 ), #291, .F. ) ;
#236 = VECTOR ( 'NONE', #84, 1000.000000000000000 ) ;
#237 = FACE_OUTER_BOUND ( 'NONE', #212, .T. ) ;
#238 = UNCERTAINTY_MEASURE_WITH_UNIT (LENGTH_MEASURE( 1.000000000000000100E-005 ), #140, 'distance_accuracy_value', 'NONE');
#239 = ORIENTED_EDGE ( 'NONE', *, *, #17, .F. ) ;
#240 = EDGE_CURVE ( 'NONE', #26, #283, #50, .T. ) ;
#241 = CALENDAR_DATE ( 2017, 13, 7 ) ;
#242 = CC_DESIGN_PERSON_AND_ORGANIZATION_ASSIGNMENT ( #213, #8, ( #186 ) ) ;
#243 = EDGE_CURVE ( 'NONE', #80, #23, #337, .T. ) ;
#244 = LINE ( 'NONE', #110, #236 ) ;
#245 = LINE ( 'NONE', #205, #10 ) ;
#246 = ORIENTED_EDGE ( 'NONE', *, *, #57, .F. ) ;
#247 = PRODUCT ( 'Web Model 47189_47541', 'Web Model 47189_47541', '', ( #85 ) ) ;
#248 = CC_DESIGN_SECURITY_CLASSIFICATION ( #276, ( #186 ) ) ;
#249 = CLOSED_SHELL ( 'NONE', ( #267, #126, #296, #70, #350, #155 ) ) ;
#250 = DIRECTION ( 'NONE',  ( 1.000000000000000000, 0.0000000000000000000, 0.0000000000000000000 ) ) ;
#251 = CARTESIAN_POINT ( 'NONE',  ( 10.00000000000000200, -10.00000000000000200, 10.00000000000000000 ) ) ;
#252 = DIRECTION ( 'NONE',  ( 1.000000000000000000, 0.0000000000000000000, 0.0000000000000000000 ) ) ;
#253 = APPROVAL_STATUS ( 'not_yet_approved' ) ;
#254 = LINE ( 'NONE', #82, #31 ) ;
#255 = VECTOR ( 'NONE', #330, 1000.000000000000000 ) ;
#256 = EDGE_LOOP ( 'NONE', ( #135, #272, #174, #78 ) ) ;
#257 = DIRECTION ( 'NONE',  ( 0.0000000000000000000, 1.000000000000000000, 0.0000000000000000000 ) ) ;
#258 = CARTESIAN_POINT ( 'NONE',  ( -10.00000000000000200, 9.999999999999998200, -10.00000000000000000 ) ) ;
#259 = CC_DESIGN_PERSON_AND_ORGANIZATION_ASSIGNMENT ( #138, #197, ( #186 ) ) ;
#260 = AXIS2_PLACEMENT_3D ( 'NONE', #118, #314, #149 ) ;
#261 = CARTESIAN_POINT ( 'NONE',  ( -9.999999999999998200, -10.00000000000000200, 10.00000000000000000 ) ) ;
#262 = CARTESIAN_POINT ( 'NONE',  ( -10.00000000000000200, 9.999999999999998200, 10.00000000000000000 ) ) ;
#263 = ORIENTED_EDGE ( 'NONE', *, *, #240, .F. ) ;
#264 = LINE ( 'NONE', #261, #104 ) ;
#265 = LINE ( 'NONE', #220, #349 ) ;
#266 = EDGE_CURVE ( 'NONE', #336, #23, #62, .T. ) ;
#267 = ADVANCED_FACE ( 'NONE', ( #113 ), #179, .F. ) ;
#268 = PLANE ( 'NONE',  #18 ) ;
#269 = VERTEX_POINT ( 'NONE', #121 ) ;
#270 = PRODUCT_RELATED_PRODUCT_CATEGORY ( 'detail', '', ( #247 ) ) ;
#271 = COORDINATED_UNIVERSAL_TIME_OFFSET ( 5, 0, .BEHIND. ) ;
#272 = ORIENTED_EDGE ( 'NONE', *, *, #216, .F. ) ;
#273 = LINE ( 'NONE', #95, #199 ) ;
#274 = FACE_OUTER_BOUND ( 'NONE', #171, .T. ) ;
#275 = PERSON ( 'UNSPECIFIED', 'UNSPECIFIED', 'UNSPECIFIED', ('UNSPECIFIED'), ('UNSPECIFIED'), ('UNSPECIFIED') ) ;
#276 = SECURITY_CLASSIFICATION ( '', '', #30 ) ;
#277 = CARTESIAN_POINT ( 'NONE',  ( 10.00000000000000200, -10.00000000000000200, 10.00000000000000000 ) ) ;
#278 = CARTESIAN_POINT ( 'NONE',  ( -9.999999999999998200, -10.00000000000000200, -10.00000000000000000 ) ) ;
#279 = ORIENTED_EDGE ( 'NONE', *, *, #162, .F. ) ;
#280 = CARTESIAN_POINT ( 'NONE',  ( -10.00000000000000200, 9.999999999999998200, 10.00000000000000000 ) ) ;
#281 = LOCAL_TIME ( 10, 27, 43.00000000000000000, #351 ) ;
#282 = CARTESIAN_POINT ( 'NONE',  ( 0.0000000000000000000, 0.0000000000000000000, 0.0000000000000000000 ) ) ;
#283 = VERTEX_POINT ( 'NONE', #295 ) ;
#284 = PERSON_AND_ORGANIZATION_ROLE ( 'design_owner' ) ;
#285 = EDGE_CURVE ( 'NONE', #352, #80, #264, .T. ) ;
#286 = DIRECTION ( 'NONE',  ( -0.0000000000000000000, -0.0000000000000000000, -1.000000000000000000 ) ) ;
#287 = PLANE ( 'NONE',  #260 ) ;
#288 = VERTEX_POINT ( 'NONE', #323 ) ;
#289 = DIRECTION ( 'NONE',  ( -0.7071067811865476800, 0.7071067811865474600, 0.0000000000000000000 ) ) ;
#290 = DIRECTION ( 'NONE',  ( 1.000000000000000000, 1.734723475976807100E-016, -0.0000000000000000000 ) ) ;
#291 = PLANE ( 'NONE',  #88 ) ;
#292 = APPROVAL_DATE_TIME ( #4, #204 ) ;
#293 = CARTESIAN_POINT ( 'NONE',  ( 10.00000000000000200, -10.00000000000000200, 10.00000000000000000 ) ) ;
#294 = ORIENTED_EDGE ( 'NONE', *, *, #33, .F. ) ;
#295 = CARTESIAN_POINT ( 'NONE',  ( 9.999999999999998200, 9.999999999999998200, 10.00000000000000000 ) ) ;
#296 = ADVANCED_FACE ( 'NONE', ( #181 ), #166, .F. ) ;
#297 = DIRECTION ( 'NONE',  ( -0.0000000000000000000, 0.0000000000000000000, 1.000000000000000000 ) ) ;
#298 = MANIFOLD_SOLID_BREP ( 'Boss-Extrude2', #249 ) ;
#299 = VECTOR ( 'NONE', #289, 1000.000000000000000 ) ;
#300 = ORIENTED_EDGE ( 'NONE', *, *, #53, .T. ) ;
#301 = CC_DESIGN_PERSON_AND_ORGANIZATION_ASSIGNMENT ( #67, #225, ( #276 ) ) ;
#302 = APPROVAL_PERSON_ORGANIZATION ( #14, #204, #170 ) ;
#303 = LINE ( 'NONE', #93, #134 ) ;
#304 = ORIENTED_EDGE ( 'NONE', *, *, #37, .T. ) ;
#305 = COORDINATED_UNIVERSAL_TIME_OFFSET ( 5, 0, .BEHIND. ) ;
#306 = DIRECTION ( 'NONE',  ( -0.7071067811865475700, 0.7071067811865474600, 0.0000000000000000000 ) ) ;
#307 = CARTESIAN_POINT ( 'NONE',  ( -9.999999999999998200, -10.00000000000000200, 10.00000000000000000 ) ) ;
#308 = DIRECTION ( 'NONE',  ( 1.734723475976807100E-016, -1.000000000000000000, 0.0000000000000000000 ) ) ;
#309 = APPLICATION_PROTOCOL_DEFINITION ( 'international standard', 'config_control_design', 1994, #112 ) ;
#310 = LINE ( 'NONE', #146, #322 ) ;
#311 = DIRECTION ( 'NONE',  ( -0.0000000000000000000, -0.0000000000000000000, -1.000000000000000000 ) ) ;
#312 = ORIENTED_EDGE ( 'NONE', *, *, #144, .F. ) ;
#313 = CARTESIAN_POINT ( 'NONE',  ( 9.999999999999998200, 9.999999999999998200, -10.00000000000000000 ) ) ;
#314 = DIRECTION ( 'NONE',  ( 0.0000000000000000000, 1.000000000000000000, 0.0000000000000000000 ) ) ;
#315 = LOCAL_TIME ( 10, 27, 43.00000000000000000, #27 ) ;
#316 = CC_DESIGN_DATE_AND_TIME_ASSIGNMENT ( #132, #64, ( #276 ) ) ;
#317 = ORIENTED_EDGE ( 'NONE', *, *, #162, .T. ) ;
#318 = CARTESIAN_POINT ( 'NONE',  ( 30.00000000000000700, -10.00000000000000200, -10.00000000000000000 ) ) ;
#319 = DIRECTION ( 'NONE',  ( -0.0000000000000000000, -0.0000000000000000000, -1.000000000000000000 ) ) ;
#320 = EDGE_CURVE ( 'NONE', #269, #214, #254, .T. ) ;
#321 = FACE_OUTER_BOUND ( 'NONE', #223, .T. ) ;
#322 = VECTOR ( 'NONE', #342, 1000.000000000000000 ) ;
#323 = CARTESIAN_POINT ( 'NONE',  ( 10.00000000000000200, -10.00000000000000200, 10.00000000000000000 ) ) ;
#324 = ORIENTED_EDGE ( 'NONE', *, *, #320, .F. ) ;
#325 = ORIENTED_EDGE ( 'NONE', *, *, #243, .F. ) ;
#326 = VECTOR ( 'NONE', #308, 1000.000000000000000 ) ;
#327 = ORIENTED_EDGE ( 'NONE', *, *, #320, .T. ) ;
#328 = CARTESIAN_POINT ( 'NONE',  ( -9.999999999999998200, -10.00000000000000200, 10.00000000000000000 ) ) ;
#329 = CARTESIAN_POINT ( 'NONE',  ( 0.0000000000000000000, 0.0000000000000000000, 10.00000000000000000 ) ) ;
#330 = DIRECTION ( 'NONE',  ( 1.000000000000000000, 0.0000000000000000000, 0.0000000000000000000 ) ) ;
#331 = DESIGN_CONTEXT ( 'detailed design', #112, 'design' ) ;
#332 = APPROVAL_DATE_TIME ( #48, #211 ) ;
#333 =( NAMED_UNIT ( * ) PLANE_ANGLE_UNIT ( ) SI_UNIT ( $, .RADIAN. ) );
#334 = APPROVAL_STATUS ( 'not_yet_approved' ) ;
#335 = APPROVAL_ROLE ( '' ) ;
#336 = VERTEX_POINT ( 'NONE', #278 ) ;
#337 = LINE ( 'NONE', #293, #189 ) ;
#338 = VECTOR ( 'NONE', #311, 1000.000000000000000 ) ;
#339 = EDGE_CURVE ( 'NONE', #352, #336, #172, .T. ) ;
#340 = ORIENTED_EDGE ( 'NONE', *, *, #57, .T. ) ;
#341 = CARTESIAN_POINT ( 'NONE',  ( -10.00000000000000200, 9.999999999999998200, 10.00000000000000000 ) ) ;
#342 = DIRECTION ( 'NONE',  ( -0.7071067811865476800, 0.7071067811865474600, 0.0000000000000000000 ) ) ;
#343 = CARTESIAN_POINT ( 'NONE',  ( 9.999999999999998200, 9.999999999999998200, 10.00000000000000000 ) ) ;
#344 = CARTESIAN_POINT ( 'NONE',  ( 0.0000000000000000000, 0.0000000000000000000, 10.00000000000000000 ) ) ;
#345 = DIRECTION ( 'NONE',  ( -0.0000000000000000000, -0.0000000000000000000, -1.000000000000000000 ) ) ;
#346 = APPROVAL_PERSON_ORGANIZATION ( #59, #211, #86 ) ;
#347 = ORIENTED_EDGE ( 'NONE', *, *, #144, .T. ) ;
#348 = VECTOR ( 'NONE', #178, 1000.000000000000000 ) ;
#349 = VECTOR ( 'NONE', #58, 1000.000000000000000 ) ;
#350 = ADVANCED_FACE ( 'NONE', ( #321 ), #168, .T. ) ;
#351 = COORDINATED_UNIVERSAL_TIME_OFFSET ( 5, 0, .BEHIND. ) ;
#352 = VERTEX_POINT ( 'NONE', #307 ) ;
#353 = EDGE_CURVE ( 'NONE', #123, #214, #244, .T. ) ;
#354 = VERTEX_POINT ( 'NONE', #222 ) ;
ENDSEC;
END-ISO-10303-21;
