ISO-10303-21;
HEADER;
FILE_DESCRIPTION (( 'STEP AP203' ),
    '1' );
FILE_NAME ('Web Model 46702_46669.step',
    '2017-04-10T17:43:37',
    ( '' ),
    ( '' ),
    'SwSTEP 2.0',
    'SolidWorks 2016',
    '' );
FILE_SCHEMA (( 'CONFIG_CONTROL_DESIGN' ));
ENDSEC;

DATA;
#1 = DIRECTION ( 'NONE',  ( 1.000000000000000000, 0.0000000000000000000, 0.0000000000000000000 ) ) ;
#2 = FACE_OUTER_BOUND ( 'NONE', #142, .T. ) ;
#3 = DIRECTION ( 'NONE',  ( -0.0000000000000000000, -0.0000000000000000000, -1.000000000000000000 ) ) ;
#4 = DATE_TIME_ROLE ( 'creation_date' ) ;
#5 = LOCAL_TIME ( 13, 43, 37.00000000000000000, #193 ) ;
#6 = CARTESIAN_POINT ( 'NONE',  ( 12.50000000000000400, -19.00000000000000400, 3.000000000000000000 ) ) ;
#7 = PLANE ( 'NONE',  #159 ) ;
#8 = CARTESIAN_POINT ( 'NONE',  ( -12.50000000000000000, 18.99999999999999600, 3.000000000000000000 ) ) ;
#9 = DATE_AND_TIME ( #180, #5 ) ;
#10 = FACE_OUTER_BOUND ( 'NONE', #188, .T. ) ;
#11 =( NAMED_UNIT ( * ) SI_UNIT ( $, .STERADIAN. ) SOLID_ANGLE_UNIT ( ) );
#12 = ORIENTED_EDGE ( 'NONE', *, *, #48, .T. ) ;
#13 = COORDINATED_UNIVERSAL_TIME_OFFSET ( 5, 0, .BEHIND. ) ;
#14 = DIRECTION ( 'NONE',  ( 0.0000000000000000000, 0.0000000000000000000, 1.000000000000000000 ) ) ;
#15 = AXIS2_PLACEMENT_3D ( 'NONE', #67, #156, #72 ) ;
#16 = DIRECTION ( 'NONE',  ( -1.369518533665900300E-016, 1.000000000000000000, -0.0000000000000000000 ) ) ;
#17 = CARTESIAN_POINT ( 'NONE',  ( -12.50000000000000000, 18.99999999999999600, 3.000000000000000000 ) ) ;
#18 = CARTESIAN_POINT ( 'NONE',  ( -12.49999999999999600, -19.00000000000000400, 3.000000000000000000 ) ) ;
#19 = DIRECTION ( 'NONE',  ( -1.000000000000000000, -0.0000000000000000000, -0.0000000000000000000 ) ) ;
#20 = FACE_OUTER_BOUND ( 'NONE', #110, .T. ) ;
#21 = LINE ( 'NONE', #96, #207 ) ;
#22 = APPLICATION_PROTOCOL_DEFINITION ( 'international standard', 'config_control_design', 1994, #30 ) ;
#23 = PRODUCT_DEFINITION_FORMATION_WITH_SPECIFIED_SOURCE ( 'ANY', '', #231, .NOT_KNOWN. ) ;
#24 = DIRECTION ( 'NONE',  ( 0.0000000000000000000, -0.0000000000000000000, 1.000000000000000000 ) ) ;
#25 = LINE ( 'NONE', #8, #113 ) ;
#26 = DIRECTION ( 'NONE',  ( 0.0000000000000000000, -1.000000000000000000, 0.0000000000000000000 ) ) ;
#27 = APPROVAL_DATE_TIME ( #199, #128 ) ;
#28 = DATE_AND_TIME ( #224, #182 ) ;
#29 = ORIENTED_EDGE ( 'NONE', *, *, #102, .T. ) ;
#30 = APPLICATION_CONTEXT ( 'configuration controlled 3d designs of mechanical parts and assemblies' ) ;
#31 = DATE_AND_TIME ( #43, #38 ) ;
#32 = EDGE_CURVE ( 'NONE', #136, #42, #237, .T. ) ;
#33 = VECTOR ( 'NONE', #100, 1000.000000000000000 ) ;
#34 = APPROVAL_STATUS ( 'not_yet_approved' ) ;
#35 = APPROVAL ( #98, 'UNSPECIFIED' ) ;
#36 = APPROVAL_ROLE ( '' ) ;
#37 = PERSON_AND_ORGANIZATION_ROLE ( 'design_supplier' ) ;
#38 = LOCAL_TIME ( 13, 43, 37.00000000000000000, #13 ) ;
#39 = ORIENTED_EDGE ( 'NONE', *, *, #93, .F. ) ;
#40 = AXIS2_PLACEMENT_3D ( 'NONE', #56, #26, #196 ) ;
#41 = UNCERTAINTY_MEASURE_WITH_UNIT (LENGTH_MEASURE( 1.000000000000000100E-005 ), #76, 'distance_accuracy_value', 'NONE');
#42 = VERTEX_POINT ( 'NONE', #6 ) ;
#43 = CALENDAR_DATE ( 2017, 10, 4 ) ;
#44 = CARTESIAN_POINT ( 'NONE',  ( -12.50000000000000000, 18.99999999999999600, 3.000000000000000000 ) ) ;
#45 = VERTEX_POINT ( 'NONE', #83 ) ;
#46 = DIRECTION ( 'NONE',  ( -0.0000000000000000000, 0.0000000000000000000, 1.000000000000000000 ) ) ;
#47 = COORDINATED_UNIVERSAL_TIME_OFFSET ( 5, 0, .BEHIND. ) ;
#48 = EDGE_CURVE ( 'NONE', #42, #118, #21, .T. ) ;
#49 = PERSON_AND_ORGANIZATION ( #173, #121 ) ;
#50 = CARTESIAN_POINT ( 'NONE',  ( 12.50000000000000400, -19.00000000000000400, 0.0000000000000000000 ) ) ;
#51 = CC_DESIGN_APPROVAL ( #35, ( #23 ) ) ;
#52 = EDGE_LOOP ( 'NONE', ( #139, #39, #111, #29 ) ) ;
#53 = PERSON_AND_ORGANIZATION ( #173, #121 ) ;
#54 = CARTESIAN_POINT ( 'NONE',  ( 12.50000000000000400, -19.00000000000000400, 3.000000000000000000 ) ) ;
#55 = SHAPE_DEFINITION_REPRESENTATION ( #204, #179 ) ;
#56 = CARTESIAN_POINT ( 'NONE',  ( -12.50000000000000000, 18.99999999999999600, 3.000000000000000000 ) ) ;
#57 = LOCAL_TIME ( 13, 43, 37.00000000000000000, #205 ) ;
#58 = ORIENTED_EDGE ( 'NONE', *, *, #32, .T. ) ;
#59 = CARTESIAN_POINT ( 'NONE',  ( -12.49999999999999600, -19.00000000000000400, 3.000000000000000000 ) ) ;
#60 = DATE_AND_TIME ( #137, #57 ) ;
#61 = PERSON_AND_ORGANIZATION_ROLE ( 'creator' ) ;
#62 = DIRECTION ( 'NONE',  ( 1.369518533665900100E-016, -1.000000000000000000, 0.0000000000000000000 ) ) ;
#63 = DIRECTION ( 'NONE',  ( -0.0000000000000000000, -0.0000000000000000000, -1.000000000000000000 ) ) ;
#64 = VECTOR ( 'NONE', #206, 1000.000000000000000 ) ;
#65 = EDGE_CURVE ( 'NONE', #42, #177, #68, .T. ) ;
#66 = ORIENTED_EDGE ( 'NONE', *, *, #125, .F. ) ;
#67 = CARTESIAN_POINT ( 'NONE',  ( 12.50000000000000400, -19.00000000000000400, 0.0000000000000000000 ) ) ;
#68 = LINE ( 'NONE', #115, #64 ) ;
#69 = CC_DESIGN_PERSON_AND_ORGANIZATION_ASSIGNMENT ( #127, #61, ( #23 ) ) ;
#70 = CARTESIAN_POINT ( 'NONE',  ( 12.49999999999999800, 18.99999999999999600, 3.000000000000000000 ) ) ;
#71 = ORIENTED_EDGE ( 'NONE', *, *, #217, .T. ) ;
#72 = DIRECTION ( 'NONE',  ( 1.000000000000000000, 0.0000000000000000000, 0.0000000000000000000 ) ) ;
#73 = APPROVAL_ROLE ( '' ) ;
#74 = CC_DESIGN_PERSON_AND_ORGANIZATION_ASSIGNMENT ( #203, #144, ( #231 ) ) ;
#75 = APPLICATION_PROTOCOL_DEFINITION ( 'international standard', 'config_control_design', 1994, #101 ) ;
#76 =( LENGTH_UNIT ( ) NAMED_UNIT ( * ) SI_UNIT ( .MILLI., .METRE. ) );
#77 = DIRECTION ( 'NONE',  ( 0.0000000000000000000, 1.000000000000000000, 0.0000000000000000000 ) ) ;
#78 = APPROVAL_PERSON_ORGANIZATION ( #186, #128, #218 ) ;
#79 = EDGE_CURVE ( 'NONE', #194, #45, #91, .T. ) ;
#80 = DIRECTION ( 'NONE',  ( -1.000000000000000000, -0.0000000000000000000, -0.0000000000000000000 ) ) ;
#81 = ORIENTED_EDGE ( 'NONE', *, *, #65, .F. ) ;
#82 = CC_DESIGN_PERSON_AND_ORGANIZATION_ASSIGNMENT ( #202, #37, ( #23 ) ) ;
#83 = CARTESIAN_POINT ( 'NONE',  ( -12.49999999999999600, -19.00000000000000400, 0.0000000000000000000 ) ) ;
#84 = FACE_OUTER_BOUND ( 'NONE', #181, .T. ) ;
#85 = APPROVAL_PERSON_ORGANIZATION ( #49, #230, #36 ) ;
#86 = AXIS2_PLACEMENT_3D ( 'NONE', #135, #14, #227 ) ;
#87 = CARTESIAN_POINT ( 'NONE',  ( 12.49999999999999800, 18.99999999999999600, 3.000000000000000000 ) ) ;
#88 = EDGE_CURVE ( 'NONE', #118, #161, #153, .T. ) ;
#89 = DIRECTION ( 'NONE',  ( 1.000000000000000000, 0.0000000000000000000, 0.0000000000000000000 ) ) ;
#90 = SECURITY_CLASSIFICATION ( '', '', #107 ) ;
#91 = LINE ( 'NONE', #216, #149 ) ;
#92 = ORIENTED_EDGE ( 'NONE', *, *, #126, .F. ) ;
#93 = EDGE_CURVE ( 'NONE', #235, #194, #213, .T. ) ;
#94 = VECTOR ( 'NONE', #19, 1000.000000000000000 ) ;
#95 = PLANE ( 'NONE',  #167 ) ;
#96 = CARTESIAN_POINT ( 'NONE',  ( 12.50000000000000400, -19.00000000000000400, 3.000000000000000000 ) ) ;
#97 = ORIENTED_EDGE ( 'NONE', *, *, #79, .T. ) ;
#98 = APPROVAL_STATUS ( 'not_yet_approved' ) ;
#99 = ORIENTED_EDGE ( 'NONE', *, *, #93, .T. ) ;
#100 = DIRECTION ( 'NONE',  ( 1.000000000000000000, 0.0000000000000000000, 0.0000000000000000000 ) ) ;
#101 = APPLICATION_CONTEXT ( 'configuration controlled 3d designs of mechanical parts and assemblies' ) ;
#102 = EDGE_CURVE ( 'NONE', #177, #161, #228, .T. ) ;
#103 = FACE_OUTER_BOUND ( 'NONE', #52, .T. ) ;
#104 =( NAMED_UNIT ( * ) PLANE_ANGLE_UNIT ( ) SI_UNIT ( $, .RADIAN. ) );
#105 = LINE ( 'NONE', #109, #157 ) ;
#106 = DIRECTION ( 'NONE',  ( -0.0000000000000000000, -0.0000000000000000000, -1.000000000000000000 ) ) ;
#107 = SECURITY_CLASSIFICATION_LEVEL ( 'unclassified' ) ;
#108 = CC_DESIGN_PERSON_AND_ORGANIZATION_ASSIGNMENT ( #229, #154, ( #90 ) ) ;
#109 = CARTESIAN_POINT ( 'NONE',  ( -12.49999999999999600, -19.00000000000000400, 3.000000000000000000 ) ) ;
#110 = EDGE_LOOP ( 'NONE', ( #71, #233, #130, #158 ) ) ;
#111 = ORIENTED_EDGE ( 'NONE', *, *, #208, .F. ) ;
#112 = MANIFOLD_SOLID_BREP ( 'Extrude1', #174 ) ;
#113 = VECTOR ( 'NONE', #133, 1000.000000000000000 ) ;
#114 = CARTESIAN_POINT ( 'NONE',  ( 12.49999999999999800, 18.99999999999999600, 3.000000000000000000 ) ) ;
#115 = CARTESIAN_POINT ( 'NONE',  ( 12.49999999999999800, 18.99999999999999600, 3.000000000000000000 ) ) ;
#116 = CARTESIAN_POINT ( 'NONE',  ( -12.50000000000000000, 18.99999999999999600, 0.0000000000000000000 ) ) ;
#117 = DIRECTION ( 'NONE',  ( 1.000000000000000000, 9.130123557772669600E-017, -0.0000000000000000000 ) ) ;
#118 = VERTEX_POINT ( 'NONE', #50 ) ;
#119 = EDGE_CURVE ( 'NONE', #161, #194, #221, .T. ) ;
#120 = DIRECTION ( 'NONE',  ( -9.130123557772669600E-017, 1.000000000000000000, 0.0000000000000000000 ) ) ;
#121 = ORGANIZATION ( 'UNSPECIFIED', 'UNSPECIFIED', '' ) ;
#122 = APPROVAL_DATE_TIME ( #60, #35 ) ;
#123 = CARTESIAN_POINT ( 'NONE',  ( -12.49999999999999600, -19.00000000000000400, 0.0000000000000000000 ) ) ;
#124 = CC_DESIGN_DATE_AND_TIME_ASSIGNMENT ( #31, #138, ( #90 ) ) ;
#125 = EDGE_CURVE ( 'NONE', #235, #136, #25, .T. ) ;
#126 = EDGE_CURVE ( 'NONE', #136, #45, #105, .T. ) ;
#127 = PERSON_AND_ORGANIZATION ( #173, #121 ) ;
#128 = APPROVAL ( #34, 'UNSPECIFIED' ) ;
#129 = PLANE ( 'NONE',  #146 ) ;
#130 = ORIENTED_EDGE ( 'NONE', *, *, #32, .F. ) ;
#131 = PLANE ( 'NONE',  #132 ) ;
#132 = AXIS2_PLACEMENT_3D ( 'NONE', #54, #46, #1 ) ;
#133 = DIRECTION ( 'NONE',  ( 9.130123557772669600E-017, -1.000000000000000000, 0.0000000000000000000 ) ) ;
#134 = PERSON_AND_ORGANIZATION_ROLE ( 'creator' ) ;
#135 = CARTESIAN_POINT ( 'NONE',  ( 0.0000000000000000000, 0.0000000000000000000, 0.0000000000000000000 ) ) ;
#136 = VERTEX_POINT ( 'NONE', #18 ) ;
#137 = CALENDAR_DATE ( 2017, 10, 4 ) ;
#138 = DATE_TIME_ROLE ( 'classification_date' ) ;
#139 = ORIENTED_EDGE ( 'NONE', *, *, #119, .T. ) ;
#140 = DESIGN_CONTEXT ( 'detailed design', #30, 'design' ) ;
#141 = CC_DESIGN_APPROVAL ( #128, ( #90 ) ) ;
#142 = EDGE_LOOP ( 'NONE', ( #234, #183, #198, #214 ) ) ;
#143 = DIRECTION ( 'NONE',  ( -0.0000000000000000000, -0.0000000000000000000, -1.000000000000000000 ) ) ;
#144 = PERSON_AND_ORGANIZATION_ROLE ( 'design_owner' ) ;
#145 = ADVANCED_FACE ( 'NONE', ( #84 ), #129, .F. ) ;
#146 = AXIS2_PLACEMENT_3D ( 'NONE', #197, #117, #120 ) ;
#147 = ADVANCED_FACE ( 'NONE', ( #189 ), #95, .F. ) ;
#148 = DIRECTION ( 'NONE',  ( -1.000000000000000000, -1.369518533665900100E-016, 0.0000000000000000000 ) ) ;
#149 = VECTOR ( 'NONE', #190, 1000.000000000000000 ) ;
#150 = PERSON_AND_ORGANIZATION ( #173, #121 ) ;
#151 = PLANE ( 'NONE',  #40 ) ;
#152 = VECTOR ( 'NONE', #106, 1000.000000000000000 ) ;
#153 = LINE ( 'NONE', #223, #222 ) ;
#154 = PERSON_AND_ORGANIZATION_ROLE ( 'classification_officer' ) ;
#155 = CC_DESIGN_SECURITY_CLASSIFICATION ( #90, ( #23 ) ) ;
#156 = DIRECTION ( 'NONE',  ( -0.0000000000000000000, 0.0000000000000000000, 1.000000000000000000 ) ) ;
#157 = VECTOR ( 'NONE', #63, 1000.000000000000000 ) ;
#158 = ORIENTED_EDGE ( 'NONE', *, *, #126, .T. ) ;
#159 = AXIS2_PLACEMENT_3D ( 'NONE', #178, #77, #24 ) ;
#160 = CALENDAR_DATE ( 2017, 10, 4 ) ;
#161 = VERTEX_POINT ( 'NONE', #236 ) ;
#162 = ADVANCED_FACE ( 'NONE', ( #103 ), #151, .F. ) ;
#163 = ADVANCED_FACE ( 'NONE', ( #2 ), #168, .F. ) ;
#164 = PRODUCT_RELATED_PRODUCT_CATEGORY ( 'detail', '', ( #231 ) ) ;
#165 = APPROVAL_STATUS ( 'not_yet_approved' ) ;
#166 = ADVANCED_FACE ( 'NONE', ( #20 ), #7, .F. ) ;
#167 = AXIS2_PLACEMENT_3D ( 'NONE', #70, #148, #62 ) ;
#168 = PLANE ( 'NONE',  #15 ) ;
#169 = APPROVAL_DATE_TIME ( #9, #230 ) ;
#170 = ORIENTED_EDGE ( 'NONE', *, *, #208, .T. ) ;
#171 =( GEOMETRIC_REPRESENTATION_CONTEXT ( 3 ) GLOBAL_UNCERTAINTY_ASSIGNED_CONTEXT ( ( #41 ) ) GLOBAL_UNIT_ASSIGNED_CONTEXT ( ( #76, #104, #11 ) ) REPRESENTATION_CONTEXT ( 'NONE', 'WORKASPACE' ) );
#172 = APPROVAL_PERSON_ORGANIZATION ( #53, #35, #73 ) ;
#173 = PERSON ( 'UNSPECIFIED', 'UNSPECIFIED', 'UNSPECIFIED', ('UNSPECIFIED'), ('UNSPECIFIED'), ('UNSPECIFIED') ) ;
#174 = CLOSED_SHELL ( 'NONE', ( #147, #162, #145, #166, #184, #163 ) ) ;
#175 = EDGE_LOOP ( 'NONE', ( #195, #226, #81, #12 ) ) ;
#176 = LINE ( 'NONE', #44, #94 ) ;
#177 = VERTEX_POINT ( 'NONE', #87 ) ;
#178 = CARTESIAN_POINT ( 'NONE',  ( -12.49999999999999600, -19.00000000000000400, 3.000000000000000000 ) ) ;
#179 = ADVANCED_BREP_SHAPE_REPRESENTATION ( 'Web Model 46702_46669', ( #112, #86 ), #171 ) ;
#180 = CALENDAR_DATE ( 2017, 10, 4 ) ;
#181 = EDGE_LOOP ( 'NONE', ( #97, #92, #66, #99 ) ) ;
#182 = LOCAL_TIME ( 13, 43, 37.00000000000000000, #211 ) ;
#183 = ORIENTED_EDGE ( 'NONE', *, *, #217, .F. ) ;
#184 = ADVANCED_FACE ( 'NONE', ( #10 ), #131, .T. ) ;
#185 = LOCAL_TIME ( 13, 43, 37.00000000000000000, #47 ) ;
#186 = PERSON_AND_ORGANIZATION ( #173, #121 ) ;
#187 = PRODUCT_DEFINITION ( 'UNKNOWN', '', #23, #140 ) ;
#188 = EDGE_LOOP ( 'NONE', ( #209, #170, #192, #58 ) ) ;
#189 = FACE_OUTER_BOUND ( 'NONE', #175, .T. ) ;
#190 = DIRECTION ( 'NONE',  ( 9.130123557772669600E-017, -1.000000000000000000, 0.0000000000000000000 ) ) ;
#191 = VECTOR ( 'NONE', #89, 1000.000000000000000 ) ;
#192 = ORIENTED_EDGE ( 'NONE', *, *, #125, .T. ) ;
#193 = COORDINATED_UNIVERSAL_TIME_OFFSET ( 5, 0, .BEHIND. ) ;
#194 = VERTEX_POINT ( 'NONE', #116 ) ;
#195 = ORIENTED_EDGE ( 'NONE', *, *, #88, .T. ) ;
#196 = DIRECTION ( 'NONE',  ( 0.0000000000000000000, -0.0000000000000000000, -1.000000000000000000 ) ) ;
#197 = CARTESIAN_POINT ( 'NONE',  ( -12.50000000000000000, 18.99999999999999600, 3.000000000000000000 ) ) ;
#198 = ORIENTED_EDGE ( 'NONE', *, *, #79, .F. ) ;
#199 = DATE_AND_TIME ( #160, #185 ) ;
#200 = CC_DESIGN_DATE_AND_TIME_ASSIGNMENT ( #28, #4, ( #187 ) ) ;
#201 = VECTOR ( 'NONE', #80, 1000.000000000000000 ) ;
#202 = PERSON_AND_ORGANIZATION ( #173, #121 ) ;
#203 = PERSON_AND_ORGANIZATION ( #173, #121 ) ;
#204 = PRODUCT_DEFINITION_SHAPE ( 'NONE', 'NONE',  #187 ) ;
#205 = COORDINATED_UNIVERSAL_TIME_OFFSET ( 5, 0, .BEHIND. ) ;
#206 = DIRECTION ( 'NONE',  ( -1.369518533665900300E-016, 1.000000000000000000, -0.0000000000000000000 ) ) ;
#207 = VECTOR ( 'NONE', #3, 1000.000000000000000 ) ;
#208 = EDGE_CURVE ( 'NONE', #177, #235, #176, .T. ) ;
#209 = ORIENTED_EDGE ( 'NONE', *, *, #65, .T. ) ;
#210 = CC_DESIGN_APPROVAL ( #230, ( #187 ) ) ;
#211 = COORDINATED_UNIVERSAL_TIME_OFFSET ( 5, 0, .BEHIND. ) ;
#212 = MECHANICAL_CONTEXT ( 'NONE', #101, 'mechanical' ) ;
#213 = LINE ( 'NONE', #215, #232 ) ;
#214 = ORIENTED_EDGE ( 'NONE', *, *, #119, .F. ) ;
#215 = CARTESIAN_POINT ( 'NONE',  ( -12.50000000000000000, 18.99999999999999600, 3.000000000000000000 ) ) ;
#216 = CARTESIAN_POINT ( 'NONE',  ( -12.50000000000000000, 18.99999999999999600, 0.0000000000000000000 ) ) ;
#217 = EDGE_CURVE ( 'NONE', #45, #118, #219, .T. ) ;
#218 = APPROVAL_ROLE ( '' ) ;
#219 = LINE ( 'NONE', #123, #191 ) ;
#220 = CC_DESIGN_PERSON_AND_ORGANIZATION_ASSIGNMENT ( #150, #134, ( #187 ) ) ;
#221 = LINE ( 'NONE', #225, #201 ) ;
#222 = VECTOR ( 'NONE', #16, 1000.000000000000000 ) ;
#223 = CARTESIAN_POINT ( 'NONE',  ( 12.49999999999999800, 18.99999999999999600, 0.0000000000000000000 ) ) ;
#224 = CALENDAR_DATE ( 2017, 10, 4 ) ;
#225 = CARTESIAN_POINT ( 'NONE',  ( -12.50000000000000000, 18.99999999999999600, 0.0000000000000000000 ) ) ;
#226 = ORIENTED_EDGE ( 'NONE', *, *, #102, .F. ) ;
#227 = DIRECTION ( 'NONE',  ( 1.000000000000000000, 0.0000000000000000000, 0.0000000000000000000 ) ) ;
#228 = LINE ( 'NONE', #114, #152 ) ;
#229 = PERSON_AND_ORGANIZATION ( #173, #121 ) ;
#230 = APPROVAL ( #165, 'UNSPECIFIED' ) ;
#231 = PRODUCT ( 'Web Model 46702_46669', 'Web Model 46702_46669', '', ( #212 ) ) ;
#232 = VECTOR ( 'NONE', #143, 1000.000000000000000 ) ;
#233 = ORIENTED_EDGE ( 'NONE', *, *, #48, .F. ) ;
#234 = ORIENTED_EDGE ( 'NONE', *, *, #88, .F. ) ;
#235 = VERTEX_POINT ( 'NONE', #17 ) ;
#236 = CARTESIAN_POINT ( 'NONE',  ( 12.49999999999999800, 18.99999999999999600, 0.0000000000000000000 ) ) ;
#237 = LINE ( 'NONE', #59, #33 ) ;
ENDSEC;
END-ISO-10303-21;
