ISO-10303-21;
HEADER;
FILE_DESCRIPTION (( 'STEP AP203' ),
    '1' );
FILE_NAME ('Web Model 47231_49648.step',
    '2019-01-07T15:27:57',
    ( '' ),
    ( '' ),
    'SwSTEP 2.0',
    'SolidWorks 2016',
    '' );
FILE_SCHEMA (( 'CONFIG_CONTROL_DESIGN' ));
ENDSEC;

DATA;
#1 = DATE_AND_TIME ( #197, #78 ) ;
#2 = SHAPE_DEFINITION_REPRESENTATION ( #143, #209 ) ;
#3 = CARTESIAN_POINT ( 'NONE',  ( 0.0000000000000000000, 0.0000000000000000000, 2.000000000000000000 ) ) ;
#4 = ORIENTED_EDGE ( 'NONE', *, *, #128, .T. ) ;
#5 = DIRECTION ( 'NONE',  ( -1.000000000000000000, 0.0000000000000000000, -0.0000000000000000000 ) ) ;
#6 = CARTESIAN_POINT ( 'NONE',  ( 0.0000000000000000000, 0.0000000000000000000, 0.0000000000000000000 ) ) ;
#7 = DIRECTION ( 'NONE',  ( 0.0000000000000000000, -1.000000000000000000, 0.0000000000000000000 ) ) ;
#8 = EDGE_CURVE ( 'NONE', #112, #217, #57, .T. ) ;
#9 = PERSON_AND_ORGANIZATION_ROLE ( 'creator' ) ;
#10 = APPROVAL_STATUS ( 'not_yet_approved' ) ;
#11 = VECTOR ( 'NONE', #95, 1000.000000000000000 ) ;
#12 = CC_DESIGN_PERSON_AND_ORGANIZATION_ASSIGNMENT ( #144, #9, ( #63 ) ) ;
#13 = VERTEX_POINT ( 'NONE', #127 ) ;
#14 = CC_DESIGN_DATE_AND_TIME_ASSIGNMENT ( #183, #79, ( #63 ) ) ;
#15 = CARTESIAN_POINT ( 'NONE',  ( 25.00000000000000000, -25.00000000000000000, 2.000000000000000000 ) ) ;
#16 = PERSON_AND_ORGANIZATION ( #167, #145 ) ;
#17 = CARTESIAN_POINT ( 'NONE',  ( 0.0000000000000000000, 0.0000000000000000000, -2.000000000000000000 ) ) ;
#18 = DIRECTION ( 'NONE',  ( 0.0000000000000000000, 1.000000000000000000, 0.0000000000000000000 ) ) ;
#19 = DATE_AND_TIME ( #126, #194 ) ;
#20 = FACE_OUTER_BOUND ( 'NONE', #218, .T. ) ;
#21 = CARTESIAN_POINT ( 'NONE',  ( -25.00000000000000400, 25.00000000000000400, 2.000000000000000000 ) ) ;
#22 = CARTESIAN_POINT ( 'NONE',  ( 25.00000000000000000, 25.00000000000000400, -2.000000000000000000 ) ) ;
#23 = DIRECTION ( 'NONE',  ( -1.000000000000000000, -0.0000000000000000000, -0.0000000000000000000 ) ) ;
#24 =( NAMED_UNIT ( * ) SI_UNIT ( $, .STERADIAN. ) SOLID_ANGLE_UNIT ( ) );
#25 = APPROVAL ( #10, 'UNSPECIFIED' ) ;
#26 = ORIENTED_EDGE ( 'NONE', *, *, #91, .F. ) ;
#27 = PERSON_AND_ORGANIZATION_ROLE ( 'design_owner' ) ;
#28 = APPROVAL_ROLE ( '' ) ;
#29 =( LENGTH_UNIT ( ) NAMED_UNIT ( * ) SI_UNIT ( .MILLI., .METRE. ) );
#30 = VERTEX_POINT ( 'NONE', #56 ) ;
#31 = CC_DESIGN_DATE_AND_TIME_ASSIGNMENT ( #121, #156, ( #103 ) ) ;
#32 = CALENDAR_DATE ( 2019, 7, 1 ) ;
#33 = APPROVAL_PERSON_ORGANIZATION ( #232, #70, #28 ) ;
#34 = ORIENTED_EDGE ( 'NONE', *, *, #38, .T. ) ;
#35 = CC_DESIGN_PERSON_AND_ORGANIZATION_ASSIGNMENT ( #16, #225, ( #185 ) ) ;
#36 = DIRECTION ( 'NONE',  ( 0.0000000000000000000, 1.000000000000000000, 0.0000000000000000000 ) ) ;
#37 = LINE ( 'NONE', #115, #11 ) ;
#38 = EDGE_CURVE ( 'NONE', #130, #13, #180, .T. ) ;
#39 = CARTESIAN_POINT ( 'NONE',  ( -25.00000000000000400, 25.00000000000000400, 2.000000000000000000 ) ) ;
#40 = DIRECTION ( 'NONE',  ( 0.0000000000000000000, 0.0000000000000000000, -1.000000000000000000 ) ) ;
#41 = LOCAL_TIME ( 10, 27, 57.00000000000000000, #66 ) ;
#42 = DIRECTION ( 'NONE',  ( 1.000000000000000000, 0.0000000000000000000, 0.0000000000000000000 ) ) ;
#43 = DIRECTION ( 'NONE',  ( -0.0000000000000000000, -1.000000000000000000, -0.0000000000000000000 ) ) ;
#44 = SECURITY_CLASSIFICATION_LEVEL ( 'unclassified' ) ;
#45 = DATE_AND_TIME ( #32, #60 ) ;
#46 = PERSON_AND_ORGANIZATION ( #167, #145 ) ;
#47 = VERTEX_POINT ( 'NONE', #187 ) ;
#48 = DIRECTION ( 'NONE',  ( 1.000000000000000000, 0.0000000000000000000, 0.0000000000000000000 ) ) ;
#49 = ADVANCED_FACE ( 'NONE', ( #153 ), #208, .F. ) ;
#50 = ORIENTED_EDGE ( 'NONE', *, *, #38, .F. ) ;
#51 = ORIENTED_EDGE ( 'NONE', *, *, #227, .T. ) ;
#52 = ADVANCED_FACE ( 'NONE', ( #201 ), #92, .F. ) ;
#53 = APPROVAL ( #140, 'UNSPECIFIED' ) ;
#54 = VECTOR ( 'NONE', #43, 1000.000000000000000 ) ;
#55 = ORIENTED_EDGE ( 'NONE', *, *, #192, .F. ) ;
#56 = CARTESIAN_POINT ( 'NONE',  ( -25.00000000000000400, 25.00000000000000400, -2.000000000000000000 ) ) ;
#57 = LINE ( 'NONE', #125, #199 ) ;
#58 = DIRECTION ( 'NONE',  ( 1.000000000000000000, 0.0000000000000000000, 0.0000000000000000000 ) ) ;
#59 = CARTESIAN_POINT ( 'NONE',  ( -25.00000000000000400, -25.00000000000000000, 2.000000000000000000 ) ) ;
#60 = LOCAL_TIME ( 10, 27, 57.00000000000000000, #117 ) ;
#61 = LINE ( 'NONE', #207, #114 ) ;
#62 = APPROVAL_ROLE ( '' ) ;
#63 = PRODUCT_DEFINITION ( 'UNKNOWN', '', #185, #164 ) ;
#64 = VECTOR ( 'NONE', #223, 1000.000000000000000 ) ;
#65 = LINE ( 'NONE', #175, #64 ) ;
#66 = COORDINATED_UNIVERSAL_TIME_OFFSET ( 5, 0, .BEHIND. ) ;
#67 = CC_DESIGN_APPROVAL ( #70, ( #63 ) ) ;
#68 = ORIENTED_EDGE ( 'NONE', *, *, #160, .F. ) ;
#69 = DIRECTION ( 'NONE',  ( -0.0000000000000000000, -0.0000000000000000000, -1.000000000000000000 ) ) ;
#70 = APPROVAL ( #136, 'UNSPECIFIED' ) ;
#71 = DIRECTION ( 'NONE',  ( 0.0000000000000000000, 0.0000000000000000000, -1.000000000000000000 ) ) ;
#72 = LINE ( 'NONE', #191, #120 ) ;
#73 = PLANE ( 'NONE',  #170 ) ;
#74 = AXIS2_PLACEMENT_3D ( 'NONE', #59, #18, #172 ) ;
#75 = DIRECTION ( 'NONE',  ( -0.0000000000000000000, -0.0000000000000000000, -1.000000000000000000 ) ) ;
#76 = PLANE ( 'NONE',  #163 ) ;
#77 = CARTESIAN_POINT ( 'NONE',  ( -25.00000000000000400, 25.00000000000000400, 2.000000000000000000 ) ) ;
#78 = LOCAL_TIME ( 10, 27, 57.00000000000000000, #224 ) ;
#79 = DATE_TIME_ROLE ( 'creation_date' ) ;
#80 = PERSON_AND_ORGANIZATION ( #167, #145 ) ;
#81 = APPLICATION_CONTEXT ( 'configuration controlled 3d designs of mechanical parts and assemblies' ) ;
#82 = VECTOR ( 'NONE', #75, 1000.000000000000000 ) ;
#83 = ADVANCED_FACE ( 'NONE', ( #20 ), #96, .F. ) ;
#84 = CALENDAR_DATE ( 2019, 7, 1 ) ;
#85 = ORIENTED_EDGE ( 'NONE', *, *, #184, .F. ) ;
#86 = ADVANCED_FACE ( 'NONE', ( #211 ), #73, .F. ) ;
#87 = AXIS2_PLACEMENT_3D ( 'NONE', #6, #212, #48 ) ;
#88 = APPROVAL_PERSON_ORGANIZATION ( #111, #25, #62 ) ;
#89 = VECTOR ( 'NONE', #116, 1000.000000000000000 ) ;
#90 = DIRECTION ( 'NONE',  ( -0.0000000000000000000, -0.0000000000000000000, -1.000000000000000000 ) ) ;
#91 = EDGE_CURVE ( 'NONE', #142, #47, #203, .T. ) ;
#92 = PLANE ( 'NONE',  #74 ) ;
#93 = APPROVAL_DATE_TIME ( #19, #25 ) ;
#94 = ORIENTED_EDGE ( 'NONE', *, *, #108, .F. ) ;
#95 = DIRECTION ( 'NONE',  ( -0.0000000000000000000, -1.000000000000000000, -0.0000000000000000000 ) ) ;
#96 = PLANE ( 'NONE',  #124 ) ;
#97 = CC_DESIGN_PERSON_AND_ORGANIZATION_ASSIGNMENT ( #46, #27, ( #233 ) ) ;
#98 = CARTESIAN_POINT ( 'NONE',  ( 25.00000000000000000, -25.00000000000000000, 2.000000000000000000 ) ) ;
#99 = EDGE_LOOP ( 'NONE', ( #51, #110, #68, #34 ) ) ;
#100 = DIRECTION ( 'NONE',  ( -1.000000000000000000, 0.0000000000000000000, -0.0000000000000000000 ) ) ;
#101 = APPROVAL_ROLE ( '' ) ;
#102 = APPROVAL_PERSON_ORGANIZATION ( #158, #53, #101 ) ;
#103 = SECURITY_CLASSIFICATION ( '', '', #44 ) ;
#104 = PERSON_AND_ORGANIZATION_ROLE ( 'design_supplier' ) ;
#105 = LINE ( 'NONE', #98, #159 ) ;
#106 = ORIENTED_EDGE ( 'NONE', *, *, #192, .T. ) ;
#107 = ADVANCED_FACE ( 'NONE', ( #214 ), #76, .F. ) ;
#108 = EDGE_CURVE ( 'NONE', #112, #147, #235, .T. ) ;
#109 = CC_DESIGN_PERSON_AND_ORGANIZATION_ASSIGNMENT ( #80, #104, ( #185 ) ) ;
#110 = ORIENTED_EDGE ( 'NONE', *, *, #8, .F. ) ;
#111 = PERSON_AND_ORGANIZATION ( #167, #145 ) ;
#112 = VERTEX_POINT ( 'NONE', #151 ) ;
#113 = PLANE ( 'NONE',  #182 ) ;
#114 = VECTOR ( 'NONE', #23, 1000.000000000000000 ) ;
#115 = CARTESIAN_POINT ( 'NONE',  ( -25.00000000000000400, -25.00000000000000000, -2.000000000000000000 ) ) ;
#116 = DIRECTION ( 'NONE',  ( -1.000000000000000000, -0.0000000000000000000, -0.0000000000000000000 ) ) ;
#117 = COORDINATED_UNIVERSAL_TIME_OFFSET ( 5, 0, .BEHIND. ) ;
#118 = APPLICATION_PROTOCOL_DEFINITION ( 'international standard', 'config_control_design', 1994, #228 ) ;
#119 = APPROVAL_DATE_TIME ( #1, #70 ) ;
#120 = VECTOR ( 'NONE', #154, 1000.000000000000000 ) ;
#121 = DATE_AND_TIME ( #165, #229 ) ;
#122 = VECTOR ( 'NONE', #58, 1000.000000000000000 ) ;
#123 = EDGE_LOOP ( 'NONE', ( #168, #162, #236, #198 ) ) ;
#124 = AXIS2_PLACEMENT_3D ( 'NONE', #222, #42, #71 ) ;
#125 = CARTESIAN_POINT ( 'NONE',  ( 25.00000000000000000, 25.00000000000000400, 2.000000000000000000 ) ) ;
#126 = CALENDAR_DATE ( 2019, 7, 1 ) ;
#127 = CARTESIAN_POINT ( 'NONE',  ( 25.00000000000000000, -25.00000000000000000, -2.000000000000000000 ) ) ;
#128 = EDGE_CURVE ( 'NONE', #217, #30, #61, .T. ) ;
#129 = COORDINATED_UNIVERSAL_TIME_OFFSET ( 5, 0, .BEHIND. ) ;
#130 = VERTEX_POINT ( 'NONE', #196 ) ;
#131 = CARTESIAN_POINT ( 'NONE',  ( -25.00000000000000400, -25.00000000000000000, -2.000000000000000000 ) ) ;
#132 = CARTESIAN_POINT ( 'NONE',  ( -25.00000000000000400, -25.00000000000000000, 2.000000000000000000 ) ) ;
#133 = CC_DESIGN_SECURITY_CLASSIFICATION ( #103, ( #185 ) ) ;
#134 = CARTESIAN_POINT ( 'NONE',  ( -25.00000000000000400, 25.00000000000000400, 2.000000000000000000 ) ) ;
#135 = ORIENTED_EDGE ( 'NONE', *, *, #148, .T. ) ;
#136 = APPROVAL_STATUS ( 'not_yet_approved' ) ;
#137 = APPROVAL_DATE_TIME ( #45, #53 ) ;
#138 = APPLICATION_PROTOCOL_DEFINITION ( 'international standard', 'config_control_design', 1994, #81 ) ;
#139 = LINE ( 'NONE', #131, #122 ) ;
#140 = APPROVAL_STATUS ( 'not_yet_approved' ) ;
#141 = MANIFOLD_SOLID_BREP ( 'Boss-Extrude1', #190 ) ;
#142 = VERTEX_POINT ( 'NONE', #132 ) ;
#143 = PRODUCT_DEFINITION_SHAPE ( 'NONE', 'NONE',  #63 ) ;
#144 = PERSON_AND_ORGANIZATION ( #167, #145 ) ;
#145 = ORGANIZATION ( 'UNSPECIFIED', 'UNSPECIFIED', '' ) ;
#146 = VECTOR ( 'NONE', #205, 1000.000000000000000 ) ;
#147 = VERTEX_POINT ( 'NONE', #39 ) ;
#148 = EDGE_CURVE ( 'NONE', #147, #30, #215, .T. ) ;
#149 = DIRECTION ( 'NONE',  ( 0.0000000000000000000, 0.0000000000000000000, 1.000000000000000000 ) ) ;
#150 = PRODUCT_RELATED_PRODUCT_CATEGORY ( 'detail', '', ( #233 ) ) ;
#151 = CARTESIAN_POINT ( 'NONE',  ( 25.00000000000000000, 25.00000000000000400, 2.000000000000000000 ) ) ;
#152 = DIRECTION ( 'NONE',  ( 0.0000000000000000000, -0.0000000000000000000, -1.000000000000000000 ) ) ;
#153 = FACE_OUTER_BOUND ( 'NONE', #99, .T. ) ;
#154 = DIRECTION ( 'NONE',  ( 0.0000000000000000000, 1.000000000000000000, 0.0000000000000000000 ) ) ;
#155 = ORIENTED_EDGE ( 'NONE', *, *, #91, .T. ) ;
#156 = DATE_TIME_ROLE ( 'classification_date' ) ;
#157 =( GEOMETRIC_REPRESENTATION_CONTEXT ( 3 ) GLOBAL_UNCERTAINTY_ASSIGNED_CONTEXT ( ( #202 ) ) GLOBAL_UNIT_ASSIGNED_CONTEXT ( ( #29, #178, #24 ) ) REPRESENTATION_CONTEXT ( 'NONE', 'WORKASPACE' ) );
#158 = PERSON_AND_ORGANIZATION ( #167, #145 ) ;
#159 = VECTOR ( 'NONE', #36, 1000.000000000000000 ) ;
#160 = EDGE_CURVE ( 'NONE', #130, #112, #105, .T. ) ;
#161 = ADVANCED_FACE ( 'NONE', ( #169 ), #113, .T. ) ;
#162 = ORIENTED_EDGE ( 'NONE', *, *, #108, .T. ) ;
#163 = AXIS2_PLACEMENT_3D ( 'NONE', #3, #221, #100 ) ;
#164 = DESIGN_CONTEXT ( 'detailed design', #81, 'design' ) ;
#165 = CALENDAR_DATE ( 2019, 7, 1 ) ;
#166 = VECTOR ( 'NONE', #69, 1000.000000000000000 ) ;
#167 = PERSON ( 'UNSPECIFIED', 'UNSPECIFIED', 'UNSPECIFIED', ('UNSPECIFIED'), ('UNSPECIFIED'), ('UNSPECIFIED') ) ;
#168 = ORIENTED_EDGE ( 'NONE', *, *, #160, .T. ) ;
#169 = FACE_OUTER_BOUND ( 'NONE', #200, .T. ) ;
#170 = AXIS2_PLACEMENT_3D ( 'NONE', #21, #7, #152 ) ;
#171 = CARTESIAN_POINT ( 'NONE',  ( 25.00000000000000000, -25.00000000000000000, 2.000000000000000000 ) ) ;
#172 = DIRECTION ( 'NONE',  ( 0.0000000000000000000, -0.0000000000000000000, 1.000000000000000000 ) ) ;
#173 = EDGE_LOOP ( 'NONE', ( #4, #220, #94, #195 ) ) ;
#174 = CARTESIAN_POINT ( 'NONE',  ( -25.00000000000000400, -25.00000000000000000, 2.000000000000000000 ) ) ;
#175 = CARTESIAN_POINT ( 'NONE',  ( -25.00000000000000400, -25.00000000000000000, 2.000000000000000000 ) ) ;
#176 = CARTESIAN_POINT ( 'NONE',  ( -25.00000000000000400, -25.00000000000000000, 2.000000000000000000 ) ) ;
#177 = MECHANICAL_CONTEXT ( 'NONE', #228, 'mechanical' ) ;
#178 =( NAMED_UNIT ( * ) PLANE_ANGLE_UNIT ( ) SI_UNIT ( $, .RADIAN. ) );
#179 = CC_DESIGN_PERSON_AND_ORGANIZATION_ASSIGNMENT ( #231, #210, ( #103 ) ) ;
#180 = LINE ( 'NONE', #15, #166 ) ;
#181 = ORIENTED_EDGE ( 'NONE', *, *, #216, .F. ) ;
#182 = AXIS2_PLACEMENT_3D ( 'NONE', #17, #40, #5 ) ;
#183 = DATE_AND_TIME ( #84, #41 ) ;
#184 = EDGE_CURVE ( 'NONE', #142, #130, #65, .T. ) ;
#185 = PRODUCT_DEFINITION_FORMATION_WITH_SPECIFIED_SOURCE ( 'ANY', '', #233, .NOT_KNOWN. ) ;
#186 = ORIENTED_EDGE ( 'NONE', *, *, #234, .F. ) ;
#187 = CARTESIAN_POINT ( 'NONE',  ( -25.00000000000000400, -25.00000000000000000, -2.000000000000000000 ) ) ;
#188 = COORDINATED_UNIVERSAL_TIME_OFFSET ( 5, 0, .BEHIND. ) ;
#189 = ORIENTED_EDGE ( 'NONE', *, *, #216, .T. ) ;
#190 = CLOSED_SHELL ( 'NONE', ( #49, #86, #83, #52, #107, #161 ) ) ;
#191 = CARTESIAN_POINT ( 'NONE',  ( 25.00000000000000000, -25.00000000000000000, -2.000000000000000000 ) ) ;
#192 = EDGE_CURVE ( 'NONE', #30, #47, #37, .T. ) ;
#193 = DIRECTION ( 'NONE',  ( -1.000000000000000000, 0.0000000000000000000, 0.0000000000000000000 ) ) ;
#194 = LOCAL_TIME ( 10, 27, 57.00000000000000000, #129 ) ;
#195 = ORIENTED_EDGE ( 'NONE', *, *, #8, .T. ) ;
#196 = CARTESIAN_POINT ( 'NONE',  ( 25.00000000000000000, -25.00000000000000000, 2.000000000000000000 ) ) ;
#197 = CALENDAR_DATE ( 2019, 7, 1 ) ;
#198 = ORIENTED_EDGE ( 'NONE', *, *, #184, .T. ) ;
#199 = VECTOR ( 'NONE', #90, 1000.000000000000000 ) ;
#200 = EDGE_LOOP ( 'NONE', ( #204, #181, #55, #206 ) ) ;
#201 = FACE_OUTER_BOUND ( 'NONE', #219, .T. ) ;
#202 = UNCERTAINTY_MEASURE_WITH_UNIT (LENGTH_MEASURE( 1.000000000000000100E-005 ), #29, 'distance_accuracy_value', 'NONE');
#203 = LINE ( 'NONE', #176, #146 ) ;
#204 = ORIENTED_EDGE ( 'NONE', *, *, #227, .F. ) ;
#205 = DIRECTION ( 'NONE',  ( -0.0000000000000000000, -0.0000000000000000000, -1.000000000000000000 ) ) ;
#206 = ORIENTED_EDGE ( 'NONE', *, *, #128, .F. ) ;
#207 = CARTESIAN_POINT ( 'NONE',  ( -25.00000000000000400, 25.00000000000000400, -2.000000000000000000 ) ) ;
#208 = PLANE ( 'NONE',  #230 ) ;
#209 = ADVANCED_BREP_SHAPE_REPRESENTATION ( 'Web Model 47231_49648', ( #141, #87 ), #157 ) ;
#210 = PERSON_AND_ORGANIZATION_ROLE ( 'classification_officer' ) ;
#211 = FACE_OUTER_BOUND ( 'NONE', #173, .T. ) ;
#212 = DIRECTION ( 'NONE',  ( 0.0000000000000000000, 0.0000000000000000000, 1.000000000000000000 ) ) ;
#213 = CC_DESIGN_APPROVAL ( #25, ( #185 ) ) ;
#214 = FACE_OUTER_BOUND ( 'NONE', #123, .T. ) ;
#215 = LINE ( 'NONE', #77, #82 ) ;
#216 = EDGE_CURVE ( 'NONE', #47, #13, #139, .T. ) ;
#217 = VERTEX_POINT ( 'NONE', #22 ) ;
#218 = EDGE_LOOP ( 'NONE', ( #106, #26, #186, #135 ) ) ;
#219 = EDGE_LOOP ( 'NONE', ( #189, #50, #85, #155 ) ) ;
#220 = ORIENTED_EDGE ( 'NONE', *, *, #148, .F. ) ;
#221 = DIRECTION ( 'NONE',  ( 0.0000000000000000000, 0.0000000000000000000, -1.000000000000000000 ) ) ;
#222 = CARTESIAN_POINT ( 'NONE',  ( -25.00000000000000400, -25.00000000000000000, 2.000000000000000000 ) ) ;
#223 = DIRECTION ( 'NONE',  ( 1.000000000000000000, 0.0000000000000000000, 0.0000000000000000000 ) ) ;
#224 = COORDINATED_UNIVERSAL_TIME_OFFSET ( 5, 0, .BEHIND. ) ;
#225 = PERSON_AND_ORGANIZATION_ROLE ( 'creator' ) ;
#226 = LINE ( 'NONE', #174, #54 ) ;
#227 = EDGE_CURVE ( 'NONE', #13, #217, #72, .T. ) ;
#228 = APPLICATION_CONTEXT ( 'configuration controlled 3d designs of mechanical parts and assemblies' ) ;
#229 = LOCAL_TIME ( 10, 27, 57.00000000000000000, #188 ) ;
#230 = AXIS2_PLACEMENT_3D ( 'NONE', #171, #193, #149 ) ;
#231 = PERSON_AND_ORGANIZATION ( #167, #145 ) ;
#232 = PERSON_AND_ORGANIZATION ( #167, #145 ) ;
#233 = PRODUCT ( 'Web Model 47231_49648', 'Web Model 47231_49648', '', ( #177 ) ) ;
#234 = EDGE_CURVE ( 'NONE', #147, #142, #226, .T. ) ;
#235 = LINE ( 'NONE', #134, #89 ) ;
#236 = ORIENTED_EDGE ( 'NONE', *, *, #234, .T. ) ;
#237 = CC_DESIGN_APPROVAL ( #53, ( #103 ) ) ;
ENDSEC;
END-ISO-10303-21;
