ISO-10303-21;
HEADER;
FILE_DESCRIPTION (( 'STEP AP203' ),
    '1' );
FILE_NAME ('Web Model 15424_15436.step',
    '2020-07-31T18:44:18',
    ( '' ),
    ( '' ),
    'SwSTEP 2.0',
    'SolidWorks 2018',
    '' );
FILE_SCHEMA (( 'CONFIG_CONTROL_DESIGN' ));
ENDSEC;

DATA;
#1 = DATE_AND_TIME ( #165, #30 ) ;
#2 = APPLICATION_PROTOCOL_DEFINITION ( 'international standard', 'config_control_design', 1994, #113 ) ;
#3 = AXIS2_PLACEMENT_3D ( 'NONE', #57, #172, #103 ) ;
#4 = CIRCLE ( 'NONE', #75, 12.69999999999999929 ) ;
#5 = DIRECTION ( 'NONE',  ( 0.0000000000000000000, 0.0000000000000000000, 1.000000000000000000 ) ) ;
#6 = ORIENTED_EDGE ( 'NONE', *, *, #88, .F. ) ;
#7 = FACE_OUTER_BOUND ( 'NONE', #60, .T. ) ;
#8 = CARTESIAN_POINT ( 'NONE',  ( -12.69999999999999929, 0.0000000000000000000, -1.000000000000000000 ) ) ;
#9 = FACE_OUTER_BOUND ( 'NONE', #99, .T. ) ;
#10 = APPLICATION_CONTEXT ( 'configuration controlled 3d designs of mechanical parts and assemblies' ) ;
#11 = CC_DESIGN_DATE_AND_TIME_ASSIGNMENT ( #148, #158, ( #167 ) ) ;
#12 = APPROVAL_ROLE ( '' ) ;
#13 = CALENDAR_DATE ( 2020, 31, 7 ) ;
#14 = PERSON_AND_ORGANIZATION_ROLE ( 'classification_officer' ) ;
#15 = DIRECTION ( 'NONE',  ( 1.000000000000000000, 0.0000000000000000000, 0.0000000000000000000 ) ) ;
#16 = CC_DESIGN_PERSON_AND_ORGANIZATION_ASSIGNMENT ( #134, #14, ( #52 ) ) ;
#17 = DATE_AND_TIME ( #97, #61 ) ;
#18 = EDGE_CURVE ( 'NONE', #51, #142, #32, .T. ) ;
#19 = APPROVAL ( #174, 'UNSPECIFIED' ) ;
#20 = ORIENTED_EDGE ( 'NONE', *, *, #24, .T. ) ;
#21 = CARTESIAN_POINT ( 'NONE',  ( 0.0000000000000000000, 0.0000000000000000000, 1.000000000000000000 ) ) ;
#22 = COORDINATED_UNIVERSAL_TIME_OFFSET ( 5, 0, .BEHIND. ) ;
#23 = PERSON_AND_ORGANIZATION_ROLE ( 'design_owner' ) ;
#24 = EDGE_CURVE ( 'NONE', #117, #173, #110, .T. ) ;
#25 = CARTESIAN_POINT ( 'NONE',  ( 0.0000000000000000000, 0.0000000000000000000, 1.000000000000000000 ) ) ;
#26 = CARTESIAN_POINT ( 'NONE',  ( 12.69999999999999929, 1.555301434917138433E-15, 1.000000000000000000 ) ) ;
#27 = DIRECTION ( 'NONE',  ( 1.000000000000000000, 0.0000000000000000000, -0.0000000000000000000 ) ) ;
#28 = CARTESIAN_POINT ( 'NONE',  ( 12.69999999999999929, 1.555301434917138433E-15, 1.000000000000000000 ) ) ;
#29 = CYLINDRICAL_SURFACE ( 'NONE', #98, 12.69999999999999929 ) ;
#30 = LOCAL_TIME ( 14, 44, 18.00000000000000000, #94 ) ;
#31 = CARTESIAN_POINT ( 'NONE',  ( 0.0000000000000000000, 0.0000000000000000000, 1.000000000000000000 ) ) ;
#32 = CIRCLE ( 'NONE', #65, 12.69999999999999929 ) ;
#33 = DATE_AND_TIME ( #154, #170 ) ;
#34 = DIRECTION ( 'NONE',  ( 0.0000000000000000000, 0.0000000000000000000, 1.000000000000000000 ) ) ;
#35 = EDGE_LOOP ( 'NONE', ( #130, #6, #95, #80 ) ) ;
#36 = AXIS2_PLACEMENT_3D ( 'NONE', #120, #34, #118 ) ;
#37 = COORDINATED_UNIVERSAL_TIME_OFFSET ( 5, 0, .BEHIND. ) ;
#38 = LINE ( 'NONE', #89, #139 ) ;
#39 = APPROVAL_STATUS ( 'not_yet_approved' ) ;
#40 = APPROVAL ( #39, 'UNSPECIFIED' ) ;
#41 = PERSON_AND_ORGANIZATION_ROLE ( 'creator' ) ;
#42 = DIRECTION ( 'NONE',  ( -0.0000000000000000000, -0.0000000000000000000, -1.000000000000000000 ) ) ;
#43 = SHAPE_DEFINITION_REPRESENTATION ( #138, #169 ) ;
#44 = CC_DESIGN_DATE_AND_TIME_ASSIGNMENT ( #17, #114, ( #52 ) ) ;
#45 = AXIS2_PLACEMENT_3D ( 'NONE', #25, #58, #27 ) ;
#46 = APPROVAL_PERSON_ORGANIZATION ( #87, #129, #102 ) ;
#47 = PERSON_AND_ORGANIZATION ( #54, #71 ) ;
#48 = ADVANCED_FACE ( 'NONE', ( #163 ), #131, .T. ) ;
#49 = CC_DESIGN_PERSON_AND_ORGANIZATION_ASSIGNMENT ( #77, #41, ( #108 ) ) ;
#50 = COORDINATED_UNIVERSAL_TIME_OFFSET ( 5, 0, .BEHIND. ) ;
#51 = VERTEX_POINT ( 'NONE', #8 ) ;
#52 = SECURITY_CLASSIFICATION ( '', '', #92 ) ;
#53 = EDGE_CURVE ( 'NONE', #117, #142, #84, .T. ) ;
#54 = PERSON ( 'UNSPECIFIED', 'UNSPECIFIED', 'UNSPECIFIED', ('UNSPECIFIED'), ('UNSPECIFIED'), ('UNSPECIFIED') ) ;
#55 = ORIENTED_EDGE ( 'NONE', *, *, #53, .T. ) ;
#56 = CC_DESIGN_APPROVAL ( #129, ( #52 ) ) ;
#57 = CARTESIAN_POINT ( 'NONE',  ( 0.0000000000000000000, 0.0000000000000000000, 0.0000000000000000000 ) ) ;
#58 = DIRECTION ( 'NONE',  ( 0.0000000000000000000, 0.0000000000000000000, 1.000000000000000000 ) ) ;
#59 = DIRECTION ( 'NONE',  ( 0.0000000000000000000, 0.0000000000000000000, 1.000000000000000000 ) ) ;
#60 = EDGE_LOOP ( 'NONE', ( #116, #20 ) ) ;
#61 = LOCAL_TIME ( 14, 44, 18.00000000000000000, #22 ) ;
#62 = APPROVAL_DATE_TIME ( #101, #40 ) ;
#63 = ADVANCED_FACE ( 'NONE', ( #9 ), #29, .T. ) ;
#64 = PERSON_AND_ORGANIZATION ( #54, #71 ) ;
#65 = AXIS2_PLACEMENT_3D ( 'NONE', #79, #5, #107 ) ;
#66 = APPROVAL_DATE_TIME ( #33, #129 ) ;
#67 = ORIENTED_EDGE ( 'NONE', *, *, #143, .T. ) ;
#68 = FACE_OUTER_BOUND ( 'NONE', #109, .T. ) ;
#69 = DIRECTION ( 'NONE',  ( -0.0000000000000000000, -0.0000000000000000000, -1.000000000000000000 ) ) ;
#70 = CC_DESIGN_PERSON_AND_ORGANIZATION_ASSIGNMENT ( #150, #104, ( #167 ) ) ;
#71 = ORGANIZATION ( 'UNSPECIFIED', 'UNSPECIFIED', '' ) ;
#72 = PLANE ( 'NONE',  #133 ) ;
#73 = VECTOR ( 'NONE', #83, 1000.000000000000000 ) ;
#74 = CARTESIAN_POINT ( 'NONE',  ( 0.0000000000000000000, 0.0000000000000000000, -1.000000000000000000 ) ) ;
#75 = AXIS2_PLACEMENT_3D ( 'NONE', #111, #59, #15 ) ;
#76 = PLANE ( 'NONE',  #45 ) ;
#77 = PERSON_AND_ORGANIZATION ( #54, #71 ) ;
#78 = CC_DESIGN_PERSON_AND_ORGANIZATION_ASSIGNMENT ( #81, #146, ( #108 ) ) ;
#79 = CARTESIAN_POINT ( 'NONE',  ( 0.0000000000000000000, 0.0000000000000000000, -1.000000000000000000 ) ) ;
#80 = ORIENTED_EDGE ( 'NONE', *, *, #18, .T. ) ;
#81 = PERSON_AND_ORGANIZATION ( #54, #71 ) ;
#82 = APPROVAL_PERSON_ORGANIZATION ( #47, #40, #12 ) ;
#83 = DIRECTION ( 'NONE',  ( -0.0000000000000000000, -0.0000000000000000000, -1.000000000000000000 ) ) ;
#84 = LINE ( 'NONE', #28, #73 ) ;
#85 = MECHANICAL_CONTEXT ( 'NONE', #10, 'mechanical' ) ;
#86 = APPROVAL_STATUS ( 'not_yet_approved' ) ;
#87 = PERSON_AND_ORGANIZATION ( #54, #71 ) ;
#88 = EDGE_CURVE ( 'NONE', #173, #117, #4, .T. ) ;
#89 = CARTESIAN_POINT ( 'NONE',  ( -12.69999999999999929, 0.0000000000000000000, 1.000000000000000000 ) ) ;
#90 =( LENGTH_UNIT ( ) NAMED_UNIT ( * ) SI_UNIT ( .MILLI., .METRE. ) );
#91 = CC_DESIGN_APPROVAL ( #40, ( #108 ) ) ;
#92 = SECURITY_CLASSIFICATION_LEVEL ( 'unclassified' ) ;
#93 = ORIENTED_EDGE ( 'NONE', *, *, #143, .F. ) ;
#94 = COORDINATED_UNIVERSAL_TIME_OFFSET ( 5, 0, .BEHIND. ) ;
#95 = ORIENTED_EDGE ( 'NONE', *, *, #128, .T. ) ;
#96 = UNCERTAINTY_MEASURE_WITH_UNIT (LENGTH_MEASURE( 1.000000000000000082E-05 ), #90, 'distance_accuracy_value', 'NONE');
#97 = CALENDAR_DATE ( 2020, 31, 7 ) ;
#98 = AXIS2_PLACEMENT_3D ( 'NONE', #21, #69, #121 ) ;
#99 = EDGE_LOOP ( 'NONE', ( #155, #55, #67, #119 ) ) ;
#100 = CARTESIAN_POINT ( 'NONE',  ( -12.69999999999999929, 0.0000000000000000000, 1.000000000000000000 ) ) ;
#101 = DATE_AND_TIME ( #162, #166 ) ;
#102 = APPROVAL_ROLE ( '' ) ;
#103 = DIRECTION ( 'NONE',  ( 1.000000000000000000, 0.0000000000000000000, 0.0000000000000000000 ) ) ;
#104 = PERSON_AND_ORGANIZATION_ROLE ( 'creator' ) ;
#105 = COORDINATED_UNIVERSAL_TIME_OFFSET ( 5, 0, .BEHIND. ) ;
#106 =( GEOMETRIC_REPRESENTATION_CONTEXT ( 3 ) GLOBAL_UNCERTAINTY_ASSIGNED_CONTEXT ( ( #96 ) ) GLOBAL_UNIT_ASSIGNED_CONTEXT ( ( #90, #175, #156 ) ) REPRESENTATION_CONTEXT ( 'NONE', 'WORKASPACE' ) );
#107 = DIRECTION ( 'NONE',  ( 1.000000000000000000, 0.0000000000000000000, 0.0000000000000000000 ) ) ;
#108 = PRODUCT_DEFINITION_FORMATION_WITH_SPECIFIED_SOURCE ( 'ANY', '', #147, .NOT_KNOWN. ) ;
#109 = EDGE_LOOP ( 'NONE', ( #168, #93 ) ) ;
#110 = CIRCLE ( 'NONE', #36, 12.69999999999999929 ) ;
#111 = CARTESIAN_POINT ( 'NONE',  ( 0.0000000000000000000, 0.0000000000000000000, 1.000000000000000000 ) ) ;
#112 = CLOSED_SHELL ( 'NONE', ( #63, #48, #141, #149 ) ) ;
#113 = APPLICATION_CONTEXT ( 'configuration controlled 3d designs of mechanical parts and assemblies' ) ;
#114 = DATE_TIME_ROLE ( 'classification_date' ) ;
#115 = DIRECTION ( 'NONE',  ( 1.000000000000000000, 0.0000000000000000000, 0.0000000000000000000 ) ) ;
#116 = ORIENTED_EDGE ( 'NONE', *, *, #88, .T. ) ;
#117 = VERTEX_POINT ( 'NONE', #26 ) ;
#118 = DIRECTION ( 'NONE',  ( 1.000000000000000000, 0.0000000000000000000, 0.0000000000000000000 ) ) ;
#119 = ORIENTED_EDGE ( 'NONE', *, *, #128, .F. ) ;
#120 = CARTESIAN_POINT ( 'NONE',  ( 0.0000000000000000000, 0.0000000000000000000, 1.000000000000000000 ) ) ;
#121 = DIRECTION ( 'NONE',  ( -1.000000000000000000, 0.0000000000000000000, 0.0000000000000000000 ) ) ;
#122 = CC_DESIGN_SECURITY_CLASSIFICATION ( #52, ( #108 ) ) ;
#123 = MANIFOLD_SOLID_BREP ( 'Boss-Extrude1', #112 ) ;
#124 = DIRECTION ( 'NONE',  ( 0.0000000000000000000, 0.0000000000000000000, 1.000000000000000000 ) ) ;
#125 = CARTESIAN_POINT ( 'NONE',  ( 0.0000000000000000000, 0.0000000000000000000, -1.000000000000000000 ) ) ;
#126 = AXIS2_PLACEMENT_3D ( 'NONE', #31, #127, #164 ) ;
#127 = DIRECTION ( 'NONE',  ( -0.0000000000000000000, -0.0000000000000000000, -1.000000000000000000 ) ) ;
#128 = EDGE_CURVE ( 'NONE', #173, #51, #38, .T. ) ;
#129 = APPROVAL ( #86, 'UNSPECIFIED' ) ;
#130 = ORIENTED_EDGE ( 'NONE', *, *, #53, .F. ) ;
#131 = CYLINDRICAL_SURFACE ( 'NONE', #126, 12.69999999999999929 ) ;
#132 = APPROVAL_DATE_TIME ( #1, #19 ) ;
#133 = AXIS2_PLACEMENT_3D ( 'NONE', #74, #161, #144 ) ;
#134 = PERSON_AND_ORGANIZATION ( #54, #71 ) ;
#135 = APPROVAL_ROLE ( '' ) ;
#136 = APPLICATION_PROTOCOL_DEFINITION ( 'international standard', 'config_control_design', 1994, #10 ) ;
#137 = AXIS2_PLACEMENT_3D ( 'NONE', #125, #124, #115 ) ;
#138 = PRODUCT_DEFINITION_SHAPE ( 'NONE', 'NONE',  #167 ) ;
#139 = VECTOR ( 'NONE', #42, 1000.000000000000000 ) ;
#140 = PRODUCT_RELATED_PRODUCT_CATEGORY ( 'detail', '', ( #147 ) ) ;
#141 = ADVANCED_FACE ( 'NONE', ( #7 ), #76, .T. ) ;
#142 = VERTEX_POINT ( 'NONE', #159 ) ;
#143 = EDGE_CURVE ( 'NONE', #142, #51, #145, .T. ) ;
#144 = DIRECTION ( 'NONE',  ( 1.000000000000000000, 0.0000000000000000000, -0.0000000000000000000 ) ) ;
#145 = CIRCLE ( 'NONE', #137, 12.69999999999999929 ) ;
#146 = PERSON_AND_ORGANIZATION_ROLE ( 'design_supplier' ) ;
#147 = PRODUCT ( 'Web Model 15424_15436', 'Web Model 15424_15436', '', ( #85 ) ) ;
#148 = DATE_AND_TIME ( #13, #151 ) ;
#149 = ADVANCED_FACE ( 'NONE', ( #68 ), #72, .F. ) ;
#150 = PERSON_AND_ORGANIZATION ( #54, #71 ) ;
#151 = LOCAL_TIME ( 14, 44, 18.00000000000000000, #105 ) ;
#152 = APPROVAL_PERSON_ORGANIZATION ( #160, #19, #135 ) ;
#153 = CC_DESIGN_PERSON_AND_ORGANIZATION_ASSIGNMENT ( #64, #23, ( #147 ) ) ;
#154 = CALENDAR_DATE ( 2020, 31, 7 ) ;
#155 = ORIENTED_EDGE ( 'NONE', *, *, #24, .F. ) ;
#156 =( NAMED_UNIT ( * ) SI_UNIT ( $, .STERADIAN. ) SOLID_ANGLE_UNIT ( ) );
#157 = CC_DESIGN_APPROVAL ( #19, ( #167 ) ) ;
#158 = DATE_TIME_ROLE ( 'creation_date' ) ;
#159 = CARTESIAN_POINT ( 'NONE',  ( 12.69999999999999929, 1.555301434917138433E-15, -1.000000000000000000 ) ) ;
#160 = PERSON_AND_ORGANIZATION ( #54, #71 ) ;
#161 = DIRECTION ( 'NONE',  ( 0.0000000000000000000, 0.0000000000000000000, 1.000000000000000000 ) ) ;
#162 = CALENDAR_DATE ( 2020, 31, 7 ) ;
#163 = FACE_OUTER_BOUND ( 'NONE', #35, .T. ) ;
#164 = DIRECTION ( 'NONE',  ( -1.000000000000000000, 0.0000000000000000000, 0.0000000000000000000 ) ) ;
#165 = CALENDAR_DATE ( 2020, 31, 7 ) ;
#166 = LOCAL_TIME ( 14, 44, 18.00000000000000000, #37 ) ;
#167 = PRODUCT_DEFINITION ( 'UNKNOWN', '', #108, #171 ) ;
#168 = ORIENTED_EDGE ( 'NONE', *, *, #18, .F. ) ;
#169 = ADVANCED_BREP_SHAPE_REPRESENTATION ( 'Web Model 15424_15436', ( #123, #3 ), #106 ) ;
#170 = LOCAL_TIME ( 14, 44, 18.00000000000000000, #50 ) ;
#171 = DESIGN_CONTEXT ( 'detailed design', #113, 'design' ) ;
#172 = DIRECTION ( 'NONE',  ( 0.0000000000000000000, 0.0000000000000000000, 1.000000000000000000 ) ) ;
#173 = VERTEX_POINT ( 'NONE', #100 ) ;
#174 = APPROVAL_STATUS ( 'not_yet_approved' ) ;
#175 =( NAMED_UNIT ( * ) PLANE_ANGLE_UNIT ( ) SI_UNIT ( $, .RADIAN. ) );
ENDSEC;
END-ISO-10303-21;
