ISO-10303-21;
HEADER;
FILE_DESCRIPTION (( 'STEP AP203' ),
    '1' );
FILE_NAME ('47193_47197.step',
    '2018-01-22T13:11:34',
    ( '' ),
    ( '' ),
    'SwSTEP 2.0',
    'SolidWorks 2016',
    '' );
FILE_SCHEMA (( 'CONFIG_CONTROL_DESIGN' ));
ENDSEC;

DATA;
#1 = COORDINATED_UNIVERSAL_TIME_OFFSET ( 5, 0, .BEHIND. ) ;
#2 = CARTESIAN_POINT ( 'NONE',  ( 0.0000000000000000000, 0.0000000000000000000, -1.500000000000000000 ) ) ;
#3 = ADVANCED_FACE ( 'NONE', ( #24 ), #110, .T. ) ;
#4 = PERSON_AND_ORGANIZATION ( #105, #94 ) ;
#5 = APPROVAL ( #106, 'UNSPECIFIED' ) ;
#6 = DIRECTION ( 'NONE',  ( 0.0000000000000000000, 0.0000000000000000000, 1.000000000000000000 ) ) ;
#7 = VECTOR ( 'NONE', #97, 1000.000000000000000 ) ;
#8 = AXIS2_PLACEMENT_3D ( 'NONE', #56, #6, #156 ) ;
#9 = PERSON_AND_ORGANIZATION ( #105, #94 ) ;
#10 = DIRECTION ( 'NONE',  ( 1.000000000000000000, 0.0000000000000000000, 0.0000000000000000000 ) ) ;
#11 = VECTOR ( 'NONE', #85, 1000.000000000000000 ) ;
#12 = DATE_TIME_ROLE ( 'creation_date' ) ;
#13 = CC_DESIGN_APPROVAL ( #5, ( #170 ) ) ;
#14 = EDGE_LOOP ( 'NONE', ( #98, #102, #48, #133 ) ) ;
#15 = AXIS2_PLACEMENT_3D ( 'NONE', #152, #84, #96 ) ;
#16 = ORIENTED_EDGE ( 'NONE', *, *, #155, .T. ) ;
#17 = CARTESIAN_POINT ( 'NONE',  ( -6.249999999999998200, 7.654042494670955600E-016, -1.500000000000000000 ) ) ;
#18 = CARTESIAN_POINT ( 'NONE',  ( -6.249999999999998200, 7.654042494670955600E-016, -1.500000000000000000 ) ) ;
#19 = CARTESIAN_POINT ( 'NONE',  ( 0.0000000000000000000, 0.0000000000000000000, 0.0000000000000000000 ) ) ;
#20 = EDGE_LOOP ( 'NONE', ( #16, #34 ) ) ;
#21 = DIRECTION ( 'NONE',  ( 1.000000000000000000, 0.0000000000000000000, -0.0000000000000000000 ) ) ;
#22 = CC_DESIGN_PERSON_AND_ORGANIZATION_ASSIGNMENT ( #9, #120, ( #170 ) ) ;
#23 = APPLICATION_CONTEXT ( 'configuration controlled 3d designs of mechanical parts and assemblies' ) ;
#24 = FACE_OUTER_BOUND ( 'NONE', #14, .T. ) ;
#25 = COORDINATED_UNIVERSAL_TIME_OFFSET ( 5, 0, .BEHIND. ) ;
#26 = APPROVAL_ROLE ( '' ) ;
#27 = MANIFOLD_SOLID_BREP ( 'Boss-Extrude1', #114 ) ;
#28 = AXIS2_PLACEMENT_3D ( 'NONE', #135, #30, #123 ) ;
#29 = FACE_OUTER_BOUND ( 'NONE', #145, .T. ) ;
#30 = DIRECTION ( 'NONE',  ( 0.0000000000000000000, 0.0000000000000000000, 1.000000000000000000 ) ) ;
#31 = DATE_AND_TIME ( #116, #60 ) ;
#32 = CC_DESIGN_PERSON_AND_ORGANIZATION_ASSIGNMENT ( #70, #40, ( #170 ) ) ;
#33 = CARTESIAN_POINT ( 'NONE',  ( 6.249999999999998200, 0.0000000000000000000, -1.500000000000000000 ) ) ;
#34 = ORIENTED_EDGE ( 'NONE', *, *, #90, .T. ) ;
#35 = COORDINATED_UNIVERSAL_TIME_OFFSET ( 5, 0, .BEHIND. ) ;
#36 = DIRECTION ( 'NONE',  ( 1.000000000000000000, 0.0000000000000000000, 0.0000000000000000000 ) ) ;
#37 = AXIS2_PLACEMENT_3D ( 'NONE', #47, #166, #141 ) ;
#38 = CALENDAR_DATE ( 2018, 22, 1 ) ;
#39 = CARTESIAN_POINT ( 'NONE',  ( 0.0000000000000000000, 0.0000000000000000000, -1.500000000000000000 ) ) ;
#40 = PERSON_AND_ORGANIZATION_ROLE ( 'design_supplier' ) ;
#41 = CALENDAR_DATE ( 2018, 22, 1 ) ;
#42 = SECURITY_CLASSIFICATION ( '', '', #130 ) ;
#43 = LINE ( 'NONE', #33, #7 ) ;
#44 = DESIGN_CONTEXT ( 'detailed design', #23, 'design' ) ;
#45 = AXIS2_PLACEMENT_3D ( 'NONE', #2, #95, #161 ) ;
#46 = COORDINATED_UNIVERSAL_TIME_OFFSET ( 5, 0, .BEHIND. ) ;
#47 = CARTESIAN_POINT ( 'NONE',  ( 0.0000000000000000000, 0.0000000000000000000, 0.0000000000000000000 ) ) ;
#48 = ORIENTED_EDGE ( 'NONE', *, *, #82, .T. ) ;
#49 = CC_DESIGN_PERSON_AND_ORGANIZATION_ASSIGNMENT ( #107, #51, ( #42 ) ) ;
#50 = VERTEX_POINT ( 'NONE', #100 ) ;
#51 = PERSON_AND_ORGANIZATION_ROLE ( 'classification_officer' ) ;
#52 = AXIS2_PLACEMENT_3D ( 'NONE', #67, #117, #10 ) ;
#53 = APPLICATION_CONTEXT ( 'configuration controlled 3d designs of mechanical parts and assemblies' ) ;
#54 = CIRCLE ( 'NONE', #28, 6.249999999999998200 ) ;
#55 = ADVANCED_FACE ( 'NONE', ( #29 ), #126, .T. ) ;
#56 = CARTESIAN_POINT ( 'NONE',  ( 0.0000000000000000000, 0.0000000000000000000, -1.500000000000000000 ) ) ;
#57 = CC_DESIGN_DATE_AND_TIME_ASSIGNMENT ( #142, #146, ( #42 ) ) ;
#58 = DIRECTION ( 'NONE',  ( 0.0000000000000000000, 0.0000000000000000000, 1.000000000000000000 ) ) ;
#59 = ORIENTED_EDGE ( 'NONE', *, *, #128, .F. ) ;
#60 = LOCAL_TIME ( 8, 11, 34.00000000000000000, #1 ) ;
#61 = APPROVAL_STATUS ( 'not_yet_approved' ) ;
#62 = PRODUCT_DEFINITION_SHAPE ( 'NONE', 'NONE',  #132 ) ;
#63 = APPROVAL_DATE_TIME ( #31, #143 ) ;
#64 = APPROVAL ( #61, 'UNSPECIFIED' ) ;
#65 = VERTEX_POINT ( 'NONE', #99 ) ;
#66 = DATE_AND_TIME ( #38, #175 ) ;
#67 = CARTESIAN_POINT ( 'NONE',  ( 0.0000000000000000000, 0.0000000000000000000, 0.0000000000000000000 ) ) ;
#68 =( NAMED_UNIT ( * ) SI_UNIT ( $, .STERADIAN. ) SOLID_ANGLE_UNIT ( ) );
#69 = APPLICATION_PROTOCOL_DEFINITION ( 'international standard', 'config_control_design', 1994, #53 ) ;
#70 = PERSON_AND_ORGANIZATION ( #105, #94 ) ;
#71 =( GEOMETRIC_REPRESENTATION_CONTEXT ( 3 ) GLOBAL_UNCERTAINTY_ASSIGNED_CONTEXT ( ( #167 ) ) GLOBAL_UNIT_ASSIGNED_CONTEXT ( ( #148, #162, #68 ) ) REPRESENTATION_CONTEXT ( 'NONE', 'WORKASPACE' ) );
#72 = ORIENTED_EDGE ( 'NONE', *, *, #155, .F. ) ;
#73 = DATE_AND_TIME ( #41, #112 ) ;
#74 = CC_DESIGN_APPROVAL ( #64, ( #42 ) ) ;
#75 = DIRECTION ( 'NONE',  ( 0.0000000000000000000, 0.0000000000000000000, 1.000000000000000000 ) ) ;
#76 = APPROVAL_STATUS ( 'not_yet_approved' ) ;
#77 = VERTEX_POINT ( 'NONE', #18 ) ;
#78 = AXIS2_PLACEMENT_3D ( 'NONE', #39, #129, #21 ) ;
#79 = ORIENTED_EDGE ( 'NONE', *, *, #109, .T. ) ;
#80 = LOCAL_TIME ( 8, 11, 34.00000000000000000, #25 ) ;
#81 = ORIENTED_EDGE ( 'NONE', *, *, #121, .F. ) ;
#82 = EDGE_CURVE ( 'NONE', #65, #157, #43, .T. ) ;
#83 = CC_DESIGN_SECURITY_CLASSIFICATION ( #42, ( #170 ) ) ;
#84 = DIRECTION ( 'NONE',  ( 0.0000000000000000000, 0.0000000000000000000, 1.000000000000000000 ) ) ;
#85 = DIRECTION ( 'NONE',  ( 0.0000000000000000000, 0.0000000000000000000, 1.000000000000000000 ) ) ;
#86 = FACE_OUTER_BOUND ( 'NONE', #119, .T. ) ;
#87 = CIRCLE ( 'NONE', #163, 6.249999999999998200 ) ;
#88 = LOCAL_TIME ( 8, 11, 34.00000000000000000, #35 ) ;
#89 = PERSON_AND_ORGANIZATION_ROLE ( 'creator' ) ;
#90 = EDGE_CURVE ( 'NONE', #50, #157, #87, .T. ) ;
#91 = COORDINATED_UNIVERSAL_TIME_OFFSET ( 5, 0, .BEHIND. ) ;
#92 = PRODUCT_RELATED_PRODUCT_CATEGORY ( 'detail', '', ( #118 ) ) ;
#93 = CIRCLE ( 'NONE', #45, 6.249999999999998200 ) ;
#94 = ORGANIZATION ( 'UNSPECIFIED', 'UNSPECIFIED', '' ) ;
#95 = DIRECTION ( 'NONE',  ( 0.0000000000000000000, 0.0000000000000000000, 1.000000000000000000 ) ) ;
#96 = DIRECTION ( 'NONE',  ( 1.000000000000000000, 0.0000000000000000000, 0.0000000000000000000 ) ) ;
#97 = DIRECTION ( 'NONE',  ( 0.0000000000000000000, 0.0000000000000000000, 1.000000000000000000 ) ) ;
#98 = ORIENTED_EDGE ( 'NONE', *, *, #109, .F. ) ;
#99 = CARTESIAN_POINT ( 'NONE',  ( 6.249999999999998200, 0.0000000000000000000, -1.500000000000000000 ) ) ;
#100 = CARTESIAN_POINT ( 'NONE',  ( -6.249999999999998200, 7.654042494670955600E-016, 0.0000000000000000000 ) ) ;
#101 = CALENDAR_DATE ( 2018, 22, 1 ) ;
#102 = ORIENTED_EDGE ( 'NONE', *, *, #121, .T. ) ;
#103 = PERSON_AND_ORGANIZATION ( #105, #94 ) ;
#104 = PLANE ( 'NONE',  #78 ) ;
#105 = PERSON ( 'UNSPECIFIED', 'UNSPECIFIED', 'UNSPECIFIED', ('UNSPECIFIED'), ('UNSPECIFIED'), ('UNSPECIFIED') ) ;
#106 = APPROVAL_STATUS ( 'not_yet_approved' ) ;
#107 = PERSON_AND_ORGANIZATION ( #105, #94 ) ;
#108 = CARTESIAN_POINT ( 'NONE',  ( 6.249999999999998200, 0.0000000000000000000, 0.0000000000000000000 ) ) ;
#109 = EDGE_CURVE ( 'NONE', #77, #50, #165, .T. ) ;
#110 = CYLINDRICAL_SURFACE ( 'NONE', #8, 6.249999999999998200 ) ;
#111 = ADVANCED_FACE ( 'NONE', ( #154 ), #113, .T. ) ;
#112 = LOCAL_TIME ( 8, 11, 34.00000000000000000, #91 ) ;
#113 = PLANE ( 'NONE',  #37 ) ;
#114 = CLOSED_SHELL ( 'NONE', ( #55, #3, #164, #111 ) ) ;
#115 = AXIS2_PLACEMENT_3D ( 'NONE', #169, #75, #171 ) ;
#116 = CALENDAR_DATE ( 2018, 22, 1 ) ;
#117 = DIRECTION ( 'NONE',  ( 0.0000000000000000000, 0.0000000000000000000, 1.000000000000000000 ) ) ;
#118 = PRODUCT ( '47193_47197', '47193_47197', '', ( #147 ) ) ;
#119 = EDGE_LOOP ( 'NONE', ( #59, #81 ) ) ;
#120 = PERSON_AND_ORGANIZATION_ROLE ( 'creator' ) ;
#121 = EDGE_CURVE ( 'NONE', #77, #65, #54, .T. ) ;
#122 = CIRCLE ( 'NONE', #52, 6.249999999999998200 ) ;
#123 = DIRECTION ( 'NONE',  ( 1.000000000000000000, 0.0000000000000000000, 0.0000000000000000000 ) ) ;
#124 = CC_DESIGN_PERSON_AND_ORGANIZATION_ASSIGNMENT ( #153, #125, ( #118 ) ) ;
#125 = PERSON_AND_ORGANIZATION_ROLE ( 'design_owner' ) ;
#126 = CYLINDRICAL_SURFACE ( 'NONE', #15, 6.249999999999998200 ) ;
#127 = APPROVAL_DATE_TIME ( #66, #5 ) ;
#128 = EDGE_CURVE ( 'NONE', #65, #77, #93, .T. ) ;
#129 = DIRECTION ( 'NONE',  ( 0.0000000000000000000, 0.0000000000000000000, 1.000000000000000000 ) ) ;
#130 = SECURITY_CLASSIFICATION_LEVEL ( 'unclassified' ) ;
#131 = PERSON_AND_ORGANIZATION ( #105, #94 ) ;
#132 = PRODUCT_DEFINITION ( 'UNKNOWN', '', #170, #44 ) ;
#133 = ORIENTED_EDGE ( 'NONE', *, *, #90, .F. ) ;
#134 = APPROVAL_DATE_TIME ( #73, #64 ) ;
#135 = CARTESIAN_POINT ( 'NONE',  ( 0.0000000000000000000, 0.0000000000000000000, -1.500000000000000000 ) ) ;
#136 = CC_DESIGN_PERSON_AND_ORGANIZATION_ASSIGNMENT ( #140, #89, ( #132 ) ) ;
#137 = ADVANCED_BREP_SHAPE_REPRESENTATION ( '47193_47197', ( #27, #115 ), #71 ) ;
#138 = DATE_AND_TIME ( #101, #80 ) ;
#139 = APPLICATION_PROTOCOL_DEFINITION ( 'international standard', 'config_control_design', 1994, #23 ) ;
#140 = PERSON_AND_ORGANIZATION ( #105, #94 ) ;
#141 = DIRECTION ( 'NONE',  ( 1.000000000000000000, 0.0000000000000000000, -0.0000000000000000000 ) ) ;
#142 = DATE_AND_TIME ( #149, #88 ) ;
#143 = APPROVAL ( #76, 'UNSPECIFIED' ) ;
#144 = SHAPE_DEFINITION_REPRESENTATION ( #62, #137 ) ;
#145 = EDGE_LOOP ( 'NONE', ( #172, #79, #72, #150 ) ) ;
#146 = DATE_TIME_ROLE ( 'classification_date' ) ;
#147 = MECHANICAL_CONTEXT ( 'NONE', #53, 'mechanical' ) ;
#148 =( LENGTH_UNIT ( ) NAMED_UNIT ( * ) SI_UNIT ( .MILLI., .METRE. ) );
#149 = CALENDAR_DATE ( 2018, 22, 1 ) ;
#150 = ORIENTED_EDGE ( 'NONE', *, *, #82, .F. ) ;
#151 = CC_DESIGN_APPROVAL ( #143, ( #132 ) ) ;
#152 = CARTESIAN_POINT ( 'NONE',  ( 0.0000000000000000000, 0.0000000000000000000, -1.500000000000000000 ) ) ;
#153 = PERSON_AND_ORGANIZATION ( #105, #94 ) ;
#154 = FACE_OUTER_BOUND ( 'NONE', #20, .T. ) ;
#155 = EDGE_CURVE ( 'NONE', #157, #50, #122, .T. ) ;
#156 = DIRECTION ( 'NONE',  ( 1.000000000000000000, 0.0000000000000000000, 0.0000000000000000000 ) ) ;
#157 = VERTEX_POINT ( 'NONE', #108 ) ;
#158 = APPROVAL_ROLE ( '' ) ;
#159 = CC_DESIGN_DATE_AND_TIME_ASSIGNMENT ( #138, #12, ( #132 ) ) ;
#160 = APPROVAL_PERSON_ORGANIZATION ( #103, #5, #26 ) ;
#161 = DIRECTION ( 'NONE',  ( 1.000000000000000000, 0.0000000000000000000, 0.0000000000000000000 ) ) ;
#162 =( NAMED_UNIT ( * ) PLANE_ANGLE_UNIT ( ) SI_UNIT ( $, .RADIAN. ) );
#163 = AXIS2_PLACEMENT_3D ( 'NONE', #19, #58, #36 ) ;
#164 = ADVANCED_FACE ( 'NONE', ( #86 ), #104, .F. ) ;
#165 = LINE ( 'NONE', #17, #11 ) ;
#166 = DIRECTION ( 'NONE',  ( 0.0000000000000000000, 0.0000000000000000000, 1.000000000000000000 ) ) ;
#167 = UNCERTAINTY_MEASURE_WITH_UNIT (LENGTH_MEASURE( 1.000000000000000100E-005 ), #148, 'distance_accuracy_value', 'NONE');
#168 = APPROVAL_PERSON_ORGANIZATION ( #131, #143, #174 ) ;
#169 = CARTESIAN_POINT ( 'NONE',  ( 0.0000000000000000000, 0.0000000000000000000, 0.0000000000000000000 ) ) ;
#170 = PRODUCT_DEFINITION_FORMATION_WITH_SPECIFIED_SOURCE ( 'ANY', '', #118, .NOT_KNOWN. ) ;
#171 = DIRECTION ( 'NONE',  ( 1.000000000000000000, 0.0000000000000000000, 0.0000000000000000000 ) ) ;
#172 = ORIENTED_EDGE ( 'NONE', *, *, #128, .T. ) ;
#173 = APPROVAL_PERSON_ORGANIZATION ( #4, #64, #158 ) ;
#174 = APPROVAL_ROLE ( '' ) ;
#175 = LOCAL_TIME ( 8, 11, 34.00000000000000000, #46 ) ;
ENDSEC;
END-ISO-10303-21;
