ISO-10303-21;
HEADER;
FILE_DESCRIPTION (( 'STEP AP203' ),
    '1' );
FILE_NAME ('Web Model 45577.STEP',
    '2017-01-31T15:18:01',
    ( '' ),
    ( '' ),
    'SwSTEP 2.0',
    'SolidWorks 2016',
    '' );
FILE_SCHEMA (( 'CONFIG_CONTROL_DESIGN' ));
ENDSEC;

DATA;
#1 = DIRECTION ( 'NONE',  ( 0.0000000000000000000, 0.0000000000000000000, 1.000000000000000000 ) ) ;
#2 = DESIGN_CONTEXT ( 'detailed design', #65, 'design' ) ;
#3 = COORDINATED_UNIVERSAL_TIME_OFFSET ( 5, 0, .BEHIND. ) ;
#4 = ORIENTED_EDGE ( 'NONE', *, *, #9, .F. ) ;
#5 = AXIS2_PLACEMENT_3D ( 'NONE', #88, #116, #11 ) ;
#6 = DATE_AND_TIME ( #13, #82 ) ;
#7 = PERSON_AND_ORGANIZATION ( #30, #64 ) ;
#8 = CC_DESIGN_APPROVAL ( #48, ( #152 ) ) ;
#9 = EDGE_CURVE ( 'NONE', #66, #169, #118, .T. ) ;
#10 = CARTESIAN_POINT ( 'NONE',  ( 10.00000000000000000, 0.0000000000000000000, -3.000000000000000000 ) ) ;
#11 = DIRECTION ( 'NONE',  ( 1.000000000000000000, 0.0000000000000000000, -0.0000000000000000000 ) ) ;
#12 = AXIS2_PLACEMENT_3D ( 'NONE', #29, #166, #81 ) ;
#13 = CALENDAR_DATE ( 2017, 31, 1 ) ;
#14 = SECURITY_CLASSIFICATION_LEVEL ( 'unclassified' ) ;
#15 = CARTESIAN_POINT ( 'NONE',  ( 0.0000000000000000000, 0.0000000000000000000, -3.000000000000000000 ) ) ;
#16 = VERTEX_POINT ( 'NONE', #28 ) ;
#17 = PLANE ( 'NONE',  #12 ) ;
#18 = ADVANCED_FACE ( 'NONE', ( #63 ), #17, .F. ) ;
#19 = AXIS2_PLACEMENT_3D ( 'NONE', #80, #135, #108 ) ;
#20 = COORDINATED_UNIVERSAL_TIME_OFFSET ( 5, 0, .BEHIND. ) ;
#21 = CC_DESIGN_PERSON_AND_ORGANIZATION_ASSIGNMENT ( #112, #79, ( #152 ) ) ;
#22 = LOCAL_TIME ( 10, 18, 1.000000000000000000, #130 ) ;
#23 = MANIFOLD_SOLID_BREP ( 'Extrude1', #99 ) ;
#24 = APPLICATION_PROTOCOL_DEFINITION ( 'international standard', 'config_control_design', 1994, #26 ) ;
#25 = MECHANICAL_CONTEXT ( 'NONE', #26, 'mechanical' ) ;
#26 = APPLICATION_CONTEXT ( 'configuration controlled 3d designs of mechanical parts and assemblies' ) ;
#27 = ORIENTED_EDGE ( 'NONE', *, *, #85, .F. ) ;
#28 = CARTESIAN_POINT ( 'NONE',  ( 10.00000000000000000, 0.0000000000000000000, 0.0000000000000000000 ) ) ;
#29 = CARTESIAN_POINT ( 'NONE',  ( 0.0000000000000000000, 0.0000000000000000000, -3.000000000000000000 ) ) ;
#30 = PERSON ( 'UNSPECIFIED', 'UNSPECIFIED', 'UNSPECIFIED', ('UNSPECIFIED'), ('UNSPECIFIED'), ('UNSPECIFIED') ) ;
#31 = ADVANCED_FACE ( 'NONE', ( #104 ), #146, .T. ) ;
#32 = PERSON_AND_ORGANIZATION ( #30, #64 ) ;
#33 = COORDINATED_UNIVERSAL_TIME_OFFSET ( 5, 0, .BEHIND. ) ;
#34 = CALENDAR_DATE ( 2017, 31, 1 ) ;
#35 = APPROVAL_PERSON_ORGANIZATION ( #105, #48, #132 ) ;
#36 = CC_DESIGN_PERSON_AND_ORGANIZATION_ASSIGNMENT ( #62, #49, ( #152 ) ) ;
#37 = VECTOR ( 'NONE', #51, 1000.000000000000000 ) ;
#38 = APPROVAL_STATUS ( 'not_yet_approved' ) ;
#39 = EDGE_LOOP ( 'NONE', ( #117, #133 ) ) ;
#40 = ADVANCED_BREP_SHAPE_REPRESENTATION ( 'Web Model 45577', ( #23, #41 ), #138 ) ;
#41 = AXIS2_PLACEMENT_3D ( 'NONE', #46, #139, #101 ) ;
#42 = DIRECTION ( 'NONE',  ( 0.0000000000000000000, 0.0000000000000000000, 1.000000000000000000 ) ) ;
#43 = PRODUCT ( 'Web Model 45577', 'Web Model 45577', '', ( #25 ) ) ;
#44 = CC_DESIGN_PERSON_AND_ORGANIZATION_ASSIGNMENT ( #57, #47, ( #149 ) ) ;
#45 = CC_DESIGN_PERSON_AND_ORGANIZATION_ASSIGNMENT ( #32, #60, ( #43 ) ) ;
#46 = CARTESIAN_POINT ( 'NONE',  ( 0.0000000000000000000, 0.0000000000000000000, 0.0000000000000000000 ) ) ;
#47 = PERSON_AND_ORGANIZATION_ROLE ( 'classification_officer' ) ;
#48 = APPROVAL ( #121, 'UNSPECIFIED' ) ;
#49 = PERSON_AND_ORGANIZATION_ROLE ( 'design_supplier' ) ;
#50 = CARTESIAN_POINT ( 'NONE',  ( -10.00000000000000000, 1.224646799147353300E-015, -3.000000000000000000 ) ) ;
#51 = DIRECTION ( 'NONE',  ( 0.0000000000000000000, 0.0000000000000000000, 1.000000000000000000 ) ) ;
#52 = SHAPE_DEFINITION_REPRESENTATION ( #59, #40 ) ;
#53 = EDGE_CURVE ( 'NONE', #137, #66, #131, .T. ) ;
#54 = APPROVAL_PERSON_ORGANIZATION ( #92, #127, #93 ) ;
#55 = ORIENTED_EDGE ( 'NONE', *, *, #100, .T. ) ;
#56 = PRODUCT_DEFINITION ( 'UNKNOWN', '', #152, #2 ) ;
#57 = PERSON_AND_ORGANIZATION ( #30, #64 ) ;
#58 = PLANE ( 'NONE',  #5 ) ;
#59 = PRODUCT_DEFINITION_SHAPE ( 'NONE', 'NONE',  #56 ) ;
#60 = PERSON_AND_ORGANIZATION_ROLE ( 'design_owner' ) ;
#61 = CC_DESIGN_APPROVAL ( #127, ( #149 ) ) ;
#62 = PERSON_AND_ORGANIZATION ( #30, #64 ) ;
#63 = FACE_OUTER_BOUND ( 'NONE', #39, .T. ) ;
#64 = ORGANIZATION ( 'UNSPECIFIED', 'UNSPECIFIED', '' ) ;
#65 = APPLICATION_CONTEXT ( 'configuration controlled 3d designs of mechanical parts and assemblies' ) ;
#66 = VERTEX_POINT ( 'NONE', #50 ) ;
#67 = DATE_TIME_ROLE ( 'creation_date' ) ;
#68 = DIRECTION ( 'NONE',  ( 1.000000000000000000, 0.0000000000000000000, 0.0000000000000000000 ) ) ;
#69 = CARTESIAN_POINT ( 'NONE',  ( 10.00000000000000000, 0.0000000000000000000, -3.000000000000000000 ) ) ;
#70 = FACE_OUTER_BOUND ( 'NONE', #162, .T. ) ;
#71 = PRODUCT_RELATED_PRODUCT_CATEGORY ( 'detail', '', ( #43 ) ) ;
#72 = EDGE_LOOP ( 'NONE', ( #4, #55, #75, #123 ) ) ;
#73 = CIRCLE ( 'NONE', #148, 10.00000000000000000 ) ;
#74 = CALENDAR_DATE ( 2017, 31, 1 ) ;
#75 = ORIENTED_EDGE ( 'NONE', *, *, #85, .T. ) ;
#76 = CARTESIAN_POINT ( 'NONE',  ( -10.00000000000000000, 1.224646799147353300E-015, 0.0000000000000000000 ) ) ;
#77 = APPROVAL ( #38, 'UNSPECIFIED' ) ;
#78 = DIRECTION ( 'NONE',  ( 1.000000000000000000, 0.0000000000000000000, 0.0000000000000000000 ) ) ;
#79 = PERSON_AND_ORGANIZATION_ROLE ( 'creator' ) ;
#80 = CARTESIAN_POINT ( 'NONE',  ( 0.0000000000000000000, 0.0000000000000000000, -3.000000000000000000 ) ) ;
#81 = DIRECTION ( 'NONE',  ( 1.000000000000000000, 0.0000000000000000000, -0.0000000000000000000 ) ) ;
#82 = LOCAL_TIME ( 10, 18, 1.000000000000000000, #3 ) ;
#83 = LINE ( 'NONE', #69, #37 ) ;
#84 = LOCAL_TIME ( 10, 18, 1.000000000000000000, #33 ) ;
#85 = EDGE_CURVE ( 'NONE', #137, #16, #83, .T. ) ;
#86 = AXIS2_PLACEMENT_3D ( 'NONE', #163, #1, #110 ) ;
#87 = CIRCLE ( 'NONE', #86, 10.00000000000000000 ) ;
#88 = CARTESIAN_POINT ( 'NONE',  ( 0.0000000000000000000, 0.0000000000000000000, 0.0000000000000000000 ) ) ;
#89 = APPROVAL_DATE_TIME ( #165, #127 ) ;
#90 = EDGE_CURVE ( 'NONE', #16, #169, #87, .T. ) ;
#91 = CARTESIAN_POINT ( 'NONE',  ( 0.0000000000000000000, 0.0000000000000000000, 0.0000000000000000000 ) ) ;
#92 = PERSON_AND_ORGANIZATION ( #30, #64 ) ;
#93 = APPROVAL_ROLE ( '' ) ;
#94 = ORIENTED_EDGE ( 'NONE', *, *, #90, .T. ) ;
#95 = CARTESIAN_POINT ( 'NONE',  ( 0.0000000000000000000, 0.0000000000000000000, -3.000000000000000000 ) ) ;
#96 = AXIS2_PLACEMENT_3D ( 'NONE', #145, #160, #78 ) ;
#97 = LOCAL_TIME ( 10, 18, 1.000000000000000000, #171 ) ;
#98 = DATE_AND_TIME ( #34, #22 ) ;
#99 = CLOSED_SHELL ( 'NONE', ( #111, #31, #18, #126 ) ) ;
#100 = EDGE_CURVE ( 'NONE', #66, #137, #73, .T. ) ;
#101 = DIRECTION ( 'NONE',  ( 1.000000000000000000, 0.0000000000000000000, 0.0000000000000000000 ) ) ;
#102 = ORIENTED_EDGE ( 'NONE', *, *, #9, .T. ) ;
#103 = AXIS2_PLACEMENT_3D ( 'NONE', #95, #42, #109 ) ;
#104 = FACE_OUTER_BOUND ( 'NONE', #72, .T. ) ;
#105 = PERSON_AND_ORGANIZATION ( #30, #64 ) ;
#106 = APPROVAL_ROLE ( '' ) ;
#107 = DIRECTION ( 'NONE',  ( 0.0000000000000000000, 0.0000000000000000000, 1.000000000000000000 ) ) ;
#108 = DIRECTION ( 'NONE',  ( 1.000000000000000000, 0.0000000000000000000, 0.0000000000000000000 ) ) ;
#109 = DIRECTION ( 'NONE',  ( 1.000000000000000000, 0.0000000000000000000, 0.0000000000000000000 ) ) ;
#110 = DIRECTION ( 'NONE',  ( 1.000000000000000000, 0.0000000000000000000, 0.0000000000000000000 ) ) ;
#111 = ADVANCED_FACE ( 'NONE', ( #70 ), #115, .T. ) ;
#112 = PERSON_AND_ORGANIZATION ( #30, #64 ) ;
#113 = DATE_AND_TIME ( #74, #84 ) ;
#114 = CC_DESIGN_APPROVAL ( #77, ( #56 ) ) ;
#115 = CYLINDRICAL_SURFACE ( 'NONE', #103, 10.00000000000000000 ) ;
#116 = DIRECTION ( 'NONE',  ( 0.0000000000000000000, 0.0000000000000000000, 1.000000000000000000 ) ) ;
#117 = ORIENTED_EDGE ( 'NONE', *, *, #53, .F. ) ;
#118 = LINE ( 'NONE', #156, #167 ) ;
#119 = EDGE_CURVE ( 'NONE', #169, #16, #174, .T. ) ;
#120 = APPROVAL_STATUS ( 'not_yet_approved' ) ;
#121 = APPROVAL_STATUS ( 'not_yet_approved' ) ;
#122 = DIRECTION ( 'NONE',  ( 0.0000000000000000000, 0.0000000000000000000, 1.000000000000000000 ) ) ;
#123 = ORIENTED_EDGE ( 'NONE', *, *, #119, .F. ) ;
#124 = AXIS2_PLACEMENT_3D ( 'NONE', #91, #122, #143 ) ;
#125 =( LENGTH_UNIT ( ) NAMED_UNIT ( * ) SI_UNIT ( .MILLI., .METRE. ) );
#126 = ADVANCED_FACE ( 'NONE', ( #141 ), #58, .T. ) ;
#127 = APPROVAL ( #120, 'UNSPECIFIED' ) ;
#128 = CALENDAR_DATE ( 2017, 31, 1 ) ;
#129 = ORIENTED_EDGE ( 'NONE', *, *, #90, .F. ) ;
#130 = COORDINATED_UNIVERSAL_TIME_OFFSET ( 5, 0, .BEHIND. ) ;
#131 = CIRCLE ( 'NONE', #19, 10.00000000000000000 ) ;
#132 = APPROVAL_ROLE ( '' ) ;
#133 = ORIENTED_EDGE ( 'NONE', *, *, #100, .F. ) ;
#134 = DIRECTION ( 'NONE',  ( 0.0000000000000000000, 0.0000000000000000000, 1.000000000000000000 ) ) ;
#135 = DIRECTION ( 'NONE',  ( 0.0000000000000000000, 0.0000000000000000000, 1.000000000000000000 ) ) ;
#136 = CC_DESIGN_PERSON_AND_ORGANIZATION_ASSIGNMENT ( #7, #155, ( #56 ) ) ;
#137 = VERTEX_POINT ( 'NONE', #10 ) ;
#138 =( GEOMETRIC_REPRESENTATION_CONTEXT ( 3 ) GLOBAL_UNCERTAINTY_ASSIGNED_CONTEXT ( ( #142 ) ) GLOBAL_UNIT_ASSIGNED_CONTEXT ( ( #125, #164, #153 ) ) REPRESENTATION_CONTEXT ( 'NONE', 'WORKASPACE' ) );
#139 = DIRECTION ( 'NONE',  ( 0.0000000000000000000, 0.0000000000000000000, 1.000000000000000000 ) ) ;
#140 = APPROVAL_DATE_TIME ( #6, #48 ) ;
#141 = FACE_OUTER_BOUND ( 'NONE', #172, .T. ) ;
#142 = UNCERTAINTY_MEASURE_WITH_UNIT (LENGTH_MEASURE( 1.000000000000000100E-005 ), #125, 'distance_accuracy_value', 'NONE');
#143 = DIRECTION ( 'NONE',  ( 1.000000000000000000, 0.0000000000000000000, 0.0000000000000000000 ) ) ;
#144 = CC_DESIGN_DATE_AND_TIME_ASSIGNMENT ( #113, #67, ( #56 ) ) ;
#145 = CARTESIAN_POINT ( 'NONE',  ( 0.0000000000000000000, 0.0000000000000000000, -3.000000000000000000 ) ) ;
#146 = CYLINDRICAL_SURFACE ( 'NONE', #96, 10.00000000000000000 ) ;
#147 = DATE_AND_TIME ( #168, #97 ) ;
#148 = AXIS2_PLACEMENT_3D ( 'NONE', #15, #107, #68 ) ;
#149 = SECURITY_CLASSIFICATION ( '', '', #14 ) ;
#150 = ORIENTED_EDGE ( 'NONE', *, *, #53, .T. ) ;
#151 = APPROVAL_DATE_TIME ( #147, #77 ) ;
#152 = PRODUCT_DEFINITION_FORMATION_WITH_SPECIFIED_SOURCE ( 'ANY', '', #43, .NOT_KNOWN. ) ;
#153 =( NAMED_UNIT ( * ) SI_UNIT ( $, .STERADIAN. ) SOLID_ANGLE_UNIT ( ) );
#154 = DATE_TIME_ROLE ( 'classification_date' ) ;
#155 = PERSON_AND_ORGANIZATION_ROLE ( 'creator' ) ;
#156 = CARTESIAN_POINT ( 'NONE',  ( -10.00000000000000000, 1.224646799147353300E-015, -3.000000000000000000 ) ) ;
#157 = APPROVAL_PERSON_ORGANIZATION ( #170, #77, #106 ) ;
#158 = APPLICATION_PROTOCOL_DEFINITION ( 'international standard', 'config_control_design', 1994, #65 ) ;
#159 = CC_DESIGN_DATE_AND_TIME_ASSIGNMENT ( #98, #154, ( #149 ) ) ;
#160 = DIRECTION ( 'NONE',  ( 0.0000000000000000000, 0.0000000000000000000, 1.000000000000000000 ) ) ;
#161 = LOCAL_TIME ( 10, 18, 1.000000000000000000, #20 ) ;
#162 = EDGE_LOOP ( 'NONE', ( #150, #102, #129, #27 ) ) ;
#163 = CARTESIAN_POINT ( 'NONE',  ( 0.0000000000000000000, 0.0000000000000000000, 0.0000000000000000000 ) ) ;
#164 =( NAMED_UNIT ( * ) PLANE_ANGLE_UNIT ( ) SI_UNIT ( $, .RADIAN. ) );
#165 = DATE_AND_TIME ( #128, #161 ) ;
#166 = DIRECTION ( 'NONE',  ( 0.0000000000000000000, 0.0000000000000000000, 1.000000000000000000 ) ) ;
#167 = VECTOR ( 'NONE', #134, 1000.000000000000000 ) ;
#168 = CALENDAR_DATE ( 2017, 31, 1 ) ;
#169 = VERTEX_POINT ( 'NONE', #76 ) ;
#170 = PERSON_AND_ORGANIZATION ( #30, #64 ) ;
#171 = COORDINATED_UNIVERSAL_TIME_OFFSET ( 5, 0, .BEHIND. ) ;
#172 = EDGE_LOOP ( 'NONE', ( #94, #175 ) ) ;
#173 = CC_DESIGN_SECURITY_CLASSIFICATION ( #149, ( #152 ) ) ;
#174 = CIRCLE ( 'NONE', #124, 10.00000000000000000 ) ;
#175 = ORIENTED_EDGE ( 'NONE', *, *, #119, .T. ) ;
ENDSEC;
END-ISO-10303-21;
