ISO-10303-21;
HEADER;
FILE_DESCRIPTION (( 'STEP AP203' ),
    '1' );
FILE_NAME ('Web Model 48459MX_43002.step',
    '2017-10-30T13:21:53',
    ( '' ),
    ( '' ),
    'SwSTEP 2.0',
    'SolidWorks 2016',
    '' );
FILE_SCHEMA (( 'CONFIG_CONTROL_DESIGN' ));
ENDSEC;

DATA;
#1 = VECTOR ( 'NONE', #155, 1000.000000000000000 ) ;
#2 = ORIENTED_EDGE ( 'NONE', *, *, #236, .F. ) ;
#3 = CARTESIAN_POINT ( 'NONE',  ( -25.00000000000000400, 24.99999999999999600, 4.750000000000000000 ) ) ;
#4 = PERSON ( 'UNSPECIFIED', 'UNSPECIFIED', 'UNSPECIFIED', ('UNSPECIFIED'), ('UNSPECIFIED'), ('UNSPECIFIED') ) ;
#5 = CARTESIAN_POINT ( 'NONE',  ( -25.00000000000000400, -25.00000000000000400, 4.750000000000000000 ) ) ;
#6 = DIRECTION ( 'NONE',  ( 1.000000000000000000, 1.387778780781445700E-016, -0.0000000000000000000 ) ) ;
#7 = AXIS2_PLACEMENT_3D ( 'NONE', #100, #23, #139 ) ;
#8 = FACE_OUTER_BOUND ( 'NONE', #68, .T. ) ;
#9 = ORIENTED_EDGE ( 'NONE', *, *, #156, .F. ) ;
#10 = CARTESIAN_POINT ( 'NONE',  ( 24.99999999999999600, -24.99999999999999600, 4.750000000000000000 ) ) ;
#11 = APPROVAL_STATUS ( 'not_yet_approved' ) ;
#12 = COORDINATED_UNIVERSAL_TIME_OFFSET ( 5, 0, .BEHIND. ) ;
#13 = EDGE_CURVE ( 'NONE', #182, #25, #212, .T. ) ;
#14 = PERSON_AND_ORGANIZATION_ROLE ( 'classification_officer' ) ;
#15 = ORIENTED_EDGE ( 'NONE', *, *, #156, .T. ) ;
#16 = AXIS2_PLACEMENT_3D ( 'NONE', #157, #197, #176 ) ;
#17 = VECTOR ( 'NONE', #82, 1000.000000000000000 ) ;
#18 = VERTEX_POINT ( 'NONE', #237 ) ;
#19 = CC_DESIGN_DATE_AND_TIME_ASSIGNMENT ( #130, #107, ( #110 ) ) ;
#20 = ADVANCED_BREP_SHAPE_REPRESENTATION ( 'Web Model 48459MX_43002', ( #118, #141 ), #72 ) ;
#21 = APPROVAL_PERSON_ORGANIZATION ( #70, #88, #31 ) ;
#22 = CARTESIAN_POINT ( 'NONE',  ( 0.0000000000000000000, 0.0000000000000000000, 0.0000000000000000000 ) ) ;
#23 = DIRECTION ( 'NONE',  ( -1.000000000000000000, 0.0000000000000000000, 0.0000000000000000000 ) ) ;
#24 = ORGANIZATION ( 'UNSPECIFIED', 'UNSPECIFIED', '' ) ;
#25 = VERTEX_POINT ( 'NONE', #53 ) ;
#26 = PLANE ( 'NONE',  #59 ) ;
#27 = CARTESIAN_POINT ( 'NONE',  ( 24.99999999999999600, 25.00000000000000400, 4.750000000000000000 ) ) ;
#28 = DIRECTION ( 'NONE',  ( -1.000000000000000000, -1.387778780781445700E-016, 0.0000000000000000000 ) ) ;
#29 = EDGE_CURVE ( 'NONE', #235, #34, #218, .T. ) ;
#30 = SECURITY_CLASSIFICATION_LEVEL ( 'unclassified' ) ;
#31 = APPROVAL_ROLE ( '' ) ;
#32 = ORIENTED_EDGE ( 'NONE', *, *, #13, .F. ) ;
#33 = CC_DESIGN_PERSON_AND_ORGANIZATION_ASSIGNMENT ( #142, #67, ( #35 ) ) ;
#34 = VERTEX_POINT ( 'NONE', #55 ) ;
#35 = PRODUCT_DEFINITION_FORMATION_WITH_SPECIFIED_SOURCE ( 'ANY', '', #149, .NOT_KNOWN. ) ;
#36 = COORDINATED_UNIVERSAL_TIME_OFFSET ( 5, 0, .BEHIND. ) ;
#37 = EDGE_LOOP ( 'NONE', ( #32, #154, #63, #91 ) ) ;
#38 = CARTESIAN_POINT ( 'NONE',  ( -25.00000000000000400, -25.00000000000000400, -4.750000000000000000 ) ) ;
#39 = APPROVAL_DATE_TIME ( #223, #94 ) ;
#40 = VECTOR ( 'NONE', #191, 1000.000000000000000 ) ;
#41 = EDGE_CURVE ( 'NONE', #73, #182, #47, .T. ) ;
#42 = PERSON_AND_ORGANIZATION ( #4, #24 ) ;
#43 = DIRECTION ( 'NONE',  ( 0.0000000000000000000, -0.0000000000000000000, 1.000000000000000000 ) ) ;
#44 = ORIENTED_EDGE ( 'NONE', *, *, #41, .T. ) ;
#45 = APPROVAL ( #159, 'UNSPECIFIED' ) ;
#46 = PLANE ( 'NONE',  #83 ) ;
#47 = LINE ( 'NONE', #76, #217 ) ;
#48 =( LENGTH_UNIT ( ) NAMED_UNIT ( * ) SI_UNIT ( .MILLI., .METRE. ) );
#49 = LINE ( 'NONE', #3, #17 ) ;
#50 = ORIENTED_EDGE ( 'NONE', *, *, #192, .T. ) ;
#51 = LINE ( 'NONE', #10, #204 ) ;
#52 = LINE ( 'NONE', #209, #145 ) ;
#53 = CARTESIAN_POINT ( 'NONE',  ( -25.00000000000000400, -25.00000000000000400, -4.750000000000000000 ) ) ;
#54 = CLOSED_SHELL ( 'NONE', ( #211, #113, #152, #172, #79, #86 ) ) ;
#55 = CARTESIAN_POINT ( 'NONE',  ( 24.99999999999999600, -24.99999999999999600, -4.750000000000000000 ) ) ;
#56 = DESIGN_CONTEXT ( 'detailed design', #65, 'design' ) ;
#57 = COORDINATED_UNIVERSAL_TIME_OFFSET ( 5, 0, .BEHIND. ) ;
#58 = LINE ( 'NONE', #114, #1 ) ;
#59 = AXIS2_PLACEMENT_3D ( 'NONE', #101, #117, #153 ) ;
#60 = PLANE ( 'NONE',  #7 ) ;
#61 = PLANE ( 'NONE',  #150 ) ;
#62 = DIRECTION ( 'NONE',  ( 1.000000000000000000, 0.0000000000000000000, -0.0000000000000000000 ) ) ;
#63 = ORIENTED_EDGE ( 'NONE', *, *, #227, .F. ) ;
#64 = DIRECTION ( 'NONE',  ( 1.000000000000000000, 0.0000000000000000000, 0.0000000000000000000 ) ) ;
#65 = APPLICATION_CONTEXT ( 'configuration controlled 3d designs of mechanical parts and assemblies' ) ;
#66 = APPROVAL_PERSON_ORGANIZATION ( #42, #45, #122 ) ;
#67 = PERSON_AND_ORGANIZATION_ROLE ( 'design_supplier' ) ;
#68 = EDGE_LOOP ( 'NONE', ( #44, #232, #187, #167 ) ) ;
#69 = CC_DESIGN_PERSON_AND_ORGANIZATION_ASSIGNMENT ( #87, #206, ( #35 ) ) ;
#70 = PERSON_AND_ORGANIZATION ( #4, #24 ) ;
#71 = LOCAL_TIME ( 9, 21, 53.00000000000000000, #36 ) ;
#72 =( GEOMETRIC_REPRESENTATION_CONTEXT ( 3 ) GLOBAL_UNCERTAINTY_ASSIGNED_CONTEXT ( ( #74 ) ) GLOBAL_UNIT_ASSIGNED_CONTEXT ( ( #48, #181, #105 ) ) REPRESENTATION_CONTEXT ( 'NONE', 'WORKASPACE' ) );
#73 = VERTEX_POINT ( 'NONE', #174 ) ;
#74 = UNCERTAINTY_MEASURE_WITH_UNIT (LENGTH_MEASURE( 1.000000000000000100E-005 ), #48, 'distance_accuracy_value', 'NONE');
#75 = AXIS2_PLACEMENT_3D ( 'NONE', #225, #43, #62 ) ;
#76 = CARTESIAN_POINT ( 'NONE',  ( 24.99999999999999600, 25.00000000000000400, -4.750000000000000000 ) ) ;
#77 = ORIENTED_EDGE ( 'NONE', *, *, #29, .T. ) ;
#78 = DIRECTION ( 'NONE',  ( -1.000000000000000000, -1.387778780781445700E-016, 0.0000000000000000000 ) ) ;
#79 = ADVANCED_FACE ( 'NONE', ( #131 ), #219, .T. ) ;
#80 = FACE_OUTER_BOUND ( 'NONE', #207, .T. ) ;
#81 = DIRECTION ( 'NONE',  ( -0.0000000000000000000, -1.000000000000000000, -0.0000000000000000000 ) ) ;
#82 = DIRECTION ( 'NONE',  ( -0.0000000000000000000, -0.0000000000000000000, -1.000000000000000000 ) ) ;
#83 = AXIS2_PLACEMENT_3D ( 'NONE', #177, #64, #199 ) ;
#84 = DIRECTION ( 'NONE',  ( 0.0000000000000000000, 1.000000000000000000, 0.0000000000000000000 ) ) ;
#85 = APPLICATION_PROTOCOL_DEFINITION ( 'international standard', 'config_control_design', 1994, #123 ) ;
#86 = ADVANCED_FACE ( 'NONE', ( #228 ), #96, .F. ) ;
#87 = PERSON_AND_ORGANIZATION ( #4, #24 ) ;
#88 = APPROVAL ( #229, 'UNSPECIFIED' ) ;
#89 = DATE_AND_TIME ( #226, #134 ) ;
#90 = APPROVAL_PERSON_ORGANIZATION ( #166, #94, #180 ) ;
#91 = ORIENTED_EDGE ( 'NONE', *, *, #138, .F. ) ;
#92 = CALENDAR_DATE ( 2017, 30, 10 ) ;
#93 = PRODUCT_DEFINITION_SHAPE ( 'NONE', 'NONE',  #164 ) ;
#94 = APPROVAL ( #11, 'UNSPECIFIED' ) ;
#95 = EDGE_LOOP ( 'NONE', ( #224, #116, #2, #77 ) ) ;
#96 = PLANE ( 'NONE',  #75 ) ;
#97 = CARTESIAN_POINT ( 'NONE',  ( 24.99999999999999600, -24.99999999999999600, 4.750000000000000000 ) ) ;
#98 = CC_DESIGN_APPROVAL ( #88, ( #35 ) ) ;
#99 = DIRECTION ( 'NONE',  ( 1.000000000000000000, 1.387778780781445700E-016, -0.0000000000000000000 ) ) ;
#100 = CARTESIAN_POINT ( 'NONE',  ( 24.99999999999999600, -24.99999999999999600, 4.750000000000000000 ) ) ;
#101 = CARTESIAN_POINT ( 'NONE',  ( 24.99999999999999600, 25.00000000000000400, 4.750000000000000000 ) ) ;
#102 = VERTEX_POINT ( 'NONE', #210 ) ;
#103 = CARTESIAN_POINT ( 'NONE',  ( 24.99999999999999600, -24.99999999999999600, 4.750000000000000000 ) ) ;
#104 = EDGE_CURVE ( 'NONE', #205, #235, #133, .T. ) ;
#105 =( NAMED_UNIT ( * ) SI_UNIT ( $, .STERADIAN. ) SOLID_ANGLE_UNIT ( ) );
#106 = DATE_TIME_ROLE ( 'creation_date' ) ;
#107 = DATE_TIME_ROLE ( 'classification_date' ) ;
#108 = EDGE_LOOP ( 'NONE', ( #136, #179, #9, #184 ) ) ;
#109 = CC_DESIGN_APPROVAL ( #45, ( #110 ) ) ;
#110 = SECURITY_CLASSIFICATION ( '', '', #30 ) ;
#111 = ORIENTED_EDGE ( 'NONE', *, *, #208, .T. ) ;
#112 = COORDINATED_UNIVERSAL_TIME_OFFSET ( 5, 0, .BEHIND. ) ;
#113 = ADVANCED_FACE ( 'NONE', ( #80 ), #61, .F. ) ;
#114 = CARTESIAN_POINT ( 'NONE',  ( -25.00000000000000400, -25.00000000000000400, 4.750000000000000000 ) ) ;
#115 = VECTOR ( 'NONE', #84, 1000.000000000000000 ) ;
#116 = ORIENTED_EDGE ( 'NONE', *, *, #183, .F. ) ;
#117 = DIRECTION ( 'NONE',  ( 1.387778780781445700E-016, -1.000000000000000000, 0.0000000000000000000 ) ) ;
#118 = MANIFOLD_SOLID_BREP ( 'Boss-Extrude1', #54 ) ;
#119 = DIRECTION ( 'NONE',  ( 1.000000000000000000, 0.0000000000000000000, 0.0000000000000000000 ) ) ;
#120 = DATE_AND_TIME ( #194, #200 ) ;
#121 = LINE ( 'NONE', #27, #146 ) ;
#122 = APPROVAL_ROLE ( '' ) ;
#123 = APPLICATION_CONTEXT ( 'configuration controlled 3d designs of mechanical parts and assemblies' ) ;
#124 = MECHANICAL_CONTEXT ( 'NONE', #123, 'mechanical' ) ;
#125 = PERSON_AND_ORGANIZATION ( #4, #24 ) ;
#126 = CC_DESIGN_PERSON_AND_ORGANIZATION_ASSIGNMENT ( #125, #14, ( #110 ) ) ;
#127 = EDGE_LOOP ( 'NONE', ( #15, #201, #162, #50 ) ) ;
#128 = PRODUCT_RELATED_PRODUCT_CATEGORY ( 'detail', '', ( #149 ) ) ;
#129 = VECTOR ( 'NONE', #6, 1000.000000000000000 ) ;
#130 = DATE_AND_TIME ( #92, #185 ) ;
#131 = FACE_OUTER_BOUND ( 'NONE', #127, .T. ) ;
#132 = APPROVAL_DATE_TIME ( #89, #45 ) ;
#133 = LINE ( 'NONE', #171, #129 ) ;
#134 = LOCAL_TIME ( 9, 21, 53.00000000000000000, #112 ) ;
#135 = LINE ( 'NONE', #213, #115 ) ;
#136 = ORIENTED_EDGE ( 'NONE', *, *, #13, .T. ) ;
#137 = DIRECTION ( 'NONE',  ( -1.387778780781445700E-016, 1.000000000000000000, 0.0000000000000000000 ) ) ;
#138 = EDGE_CURVE ( 'NONE', #25, #34, #52, .T. ) ;
#139 = DIRECTION ( 'NONE',  ( 0.0000000000000000000, 0.0000000000000000000, 1.000000000000000000 ) ) ;
#140 = VECTOR ( 'NONE', #189, 1000.000000000000000 ) ;
#141 = AXIS2_PLACEMENT_3D ( 'NONE', #22, #160, #119 ) ;
#142 = PERSON_AND_ORGANIZATION ( #4, #24 ) ;
#143 = APPROVAL_DATE_TIME ( #203, #88 ) ;
#144 = FACE_OUTER_BOUND ( 'NONE', #108, .T. ) ;
#145 = VECTOR ( 'NONE', #99, 1000.000000000000000 ) ;
#146 = VECTOR ( 'NONE', #78, 1000.000000000000000 ) ;
#147 = FACE_OUTER_BOUND ( 'NONE', #95, .T. ) ;
#148 = CC_DESIGN_SECURITY_CLASSIFICATION ( #110, ( #35 ) ) ;
#149 = PRODUCT ( 'Web Model 48459MX_43002', 'Web Model 48459MX_43002', '', ( #124 ) ) ;
#150 = AXIS2_PLACEMENT_3D ( 'NONE', #173, #137, #196 ) ;
#151 = DIRECTION ( 'NONE',  ( 0.0000000000000000000, 1.000000000000000000, 0.0000000000000000000 ) ) ;
#152 = ADVANCED_FACE ( 'NONE', ( #147 ), #60, .F. ) ;
#153 = DIRECTION ( 'NONE',  ( 1.000000000000000000, 1.387778780781445700E-016, 0.0000000000000000000 ) ) ;
#154 = ORIENTED_EDGE ( 'NONE', *, *, #41, .F. ) ;
#155 = DIRECTION ( 'NONE',  ( -0.0000000000000000000, -0.0000000000000000000, -1.000000000000000000 ) ) ;
#156 = EDGE_CURVE ( 'NONE', #18, #205, #234, .T. ) ;
#157 = CARTESIAN_POINT ( 'NONE',  ( 0.0000000000000000000, 0.0000000000000000000, 4.750000000000000000 ) ) ;
#158 = PERSON_AND_ORGANIZATION_ROLE ( 'design_owner' ) ;
#159 = APPROVAL_STATUS ( 'not_yet_approved' ) ;
#160 = DIRECTION ( 'NONE',  ( 0.0000000000000000000, 0.0000000000000000000, 1.000000000000000000 ) ) ;
#161 = VECTOR ( 'NONE', #222, 1000.000000000000000 ) ;
#162 = ORIENTED_EDGE ( 'NONE', *, *, #236, .T. ) ;
#163 = CALENDAR_DATE ( 2017, 30, 10 ) ;
#164 = PRODUCT_DEFINITION ( 'UNKNOWN', '', #35, #56 ) ;
#165 = LINE ( 'NONE', #221, #161 ) ;
#166 = PERSON_AND_ORGANIZATION ( #4, #24 ) ;
#167 = ORIENTED_EDGE ( 'NONE', *, *, #183, .T. ) ;
#168 = EDGE_CURVE ( 'NONE', #18, #182, #49, .T. ) ;
#169 = COORDINATED_UNIVERSAL_TIME_OFFSET ( 5, 0, .BEHIND. ) ;
#170 = PERSON_AND_ORGANIZATION ( #4, #24 ) ;
#171 = CARTESIAN_POINT ( 'NONE',  ( 24.99999999999999600, -24.99999999999999600, 4.750000000000000000 ) ) ;
#172 = ADVANCED_FACE ( 'NONE', ( #8 ), #26, .F. ) ;
#173 = CARTESIAN_POINT ( 'NONE',  ( 24.99999999999999600, -24.99999999999999600, 4.750000000000000000 ) ) ;
#174 = CARTESIAN_POINT ( 'NONE',  ( 24.99999999999999600, 25.00000000000000400, -4.750000000000000000 ) ) ;
#175 = CALENDAR_DATE ( 2017, 30, 10 ) ;
#176 = DIRECTION ( 'NONE',  ( 1.000000000000000000, 0.0000000000000000000, -0.0000000000000000000 ) ) ;
#177 = CARTESIAN_POINT ( 'NONE',  ( -25.00000000000000400, -25.00000000000000400, 4.750000000000000000 ) ) ;
#178 = PERSON_AND_ORGANIZATION ( #4, #24 ) ;
#179 = ORIENTED_EDGE ( 'NONE', *, *, #208, .F. ) ;
#180 = APPROVAL_ROLE ( '' ) ;
#181 =( NAMED_UNIT ( * ) PLANE_ANGLE_UNIT ( ) SI_UNIT ( $, .RADIAN. ) );
#182 = VERTEX_POINT ( 'NONE', #193 ) ;
#183 = EDGE_CURVE ( 'NONE', #102, #73, #165, .T. ) ;
#184 = ORIENTED_EDGE ( 'NONE', *, *, #168, .T. ) ;
#185 = LOCAL_TIME ( 9, 21, 53.00000000000000000, #12 ) ;
#186 = SHAPE_DEFINITION_REPRESENTATION ( #93, #20 ) ;
#187 = ORIENTED_EDGE ( 'NONE', *, *, #192, .F. ) ;
#188 = CC_DESIGN_PERSON_AND_ORGANIZATION_ASSIGNMENT ( #170, #158, ( #149 ) ) ;
#189 = DIRECTION ( 'NONE',  ( -0.0000000000000000000, -1.000000000000000000, -0.0000000000000000000 ) ) ;
#190 = ORIENTED_EDGE ( 'NONE', *, *, #29, .F. ) ;
#191 = DIRECTION ( 'NONE',  ( -0.0000000000000000000, -0.0000000000000000000, -1.000000000000000000 ) ) ;
#192 = EDGE_CURVE ( 'NONE', #102, #18, #121, .T. ) ;
#193 = CARTESIAN_POINT ( 'NONE',  ( -25.00000000000000400, 24.99999999999999600, -4.750000000000000000 ) ) ;
#194 = CALENDAR_DATE ( 2017, 30, 10 ) ;
#195 = VECTOR ( 'NONE', #81, 1000.000000000000000 ) ;
#196 = DIRECTION ( 'NONE',  ( -1.000000000000000000, -1.387778780781445700E-016, 0.0000000000000000000 ) ) ;
#197 = DIRECTION ( 'NONE',  ( 0.0000000000000000000, -0.0000000000000000000, 1.000000000000000000 ) ) ;
#198 = CARTESIAN_POINT ( 'NONE',  ( -25.00000000000000400, -25.00000000000000400, 4.750000000000000000 ) ) ;
#199 = DIRECTION ( 'NONE',  ( 0.0000000000000000000, 0.0000000000000000000, -1.000000000000000000 ) ) ;
#200 = LOCAL_TIME ( 9, 21, 53.00000000000000000, #169 ) ;
#201 = ORIENTED_EDGE ( 'NONE', *, *, #104, .T. ) ;
#202 = PERSON_AND_ORGANIZATION_ROLE ( 'creator' ) ;
#203 = DATE_AND_TIME ( #163, #231 ) ;
#204 = VECTOR ( 'NONE', #151, 1000.000000000000000 ) ;
#205 = VERTEX_POINT ( 'NONE', #198 ) ;
#206 = PERSON_AND_ORGANIZATION_ROLE ( 'creator' ) ;
#207 = EDGE_LOOP ( 'NONE', ( #230, #190, #216, #111 ) ) ;
#208 = EDGE_CURVE ( 'NONE', #205, #25, #58, .T. ) ;
#209 = CARTESIAN_POINT ( 'NONE',  ( 24.99999999999999600, -24.99999999999999600, -4.750000000000000000 ) ) ;
#210 = CARTESIAN_POINT ( 'NONE',  ( 24.99999999999999600, 25.00000000000000400, 4.750000000000000000 ) ) ;
#211 = ADVANCED_FACE ( 'NONE', ( #144 ), #46, .F. ) ;
#212 = LINE ( 'NONE', #38, #140 ) ;
#213 = CARTESIAN_POINT ( 'NONE',  ( 24.99999999999999600, -24.99999999999999600, -4.750000000000000000 ) ) ;
#214 = CC_DESIGN_APPROVAL ( #94, ( #164 ) ) ;
#215 = APPLICATION_PROTOCOL_DEFINITION ( 'international standard', 'config_control_design', 1994, #65 ) ;
#216 = ORIENTED_EDGE ( 'NONE', *, *, #104, .F. ) ;
#217 = VECTOR ( 'NONE', #28, 1000.000000000000000 ) ;
#218 = LINE ( 'NONE', #97, #40 ) ;
#219 = PLANE ( 'NONE',  #16 ) ;
#220 = CC_DESIGN_PERSON_AND_ORGANIZATION_ASSIGNMENT ( #178, #202, ( #164 ) ) ;
#221 = CARTESIAN_POINT ( 'NONE',  ( 24.99999999999999600, 25.00000000000000400, 4.750000000000000000 ) ) ;
#222 = DIRECTION ( 'NONE',  ( -0.0000000000000000000, -0.0000000000000000000, -1.000000000000000000 ) ) ;
#223 = DATE_AND_TIME ( #175, #71 ) ;
#224 = ORIENTED_EDGE ( 'NONE', *, *, #227, .T. ) ;
#225 = CARTESIAN_POINT ( 'NONE',  ( 0.0000000000000000000, 0.0000000000000000000, -4.750000000000000000 ) ) ;
#226 = CALENDAR_DATE ( 2017, 30, 10 ) ;
#227 = EDGE_CURVE ( 'NONE', #34, #73, #135, .T. ) ;
#228 = FACE_OUTER_BOUND ( 'NONE', #37, .T. ) ;
#229 = APPROVAL_STATUS ( 'not_yet_approved' ) ;
#230 = ORIENTED_EDGE ( 'NONE', *, *, #138, .T. ) ;
#231 = LOCAL_TIME ( 9, 21, 53.00000000000000000, #57 ) ;
#232 = ORIENTED_EDGE ( 'NONE', *, *, #168, .F. ) ;
#233 = CC_DESIGN_DATE_AND_TIME_ASSIGNMENT ( #120, #106, ( #164 ) ) ;
#234 = LINE ( 'NONE', #5, #195 ) ;
#235 = VERTEX_POINT ( 'NONE', #103 ) ;
#236 = EDGE_CURVE ( 'NONE', #235, #102, #51, .T. ) ;
#237 = CARTESIAN_POINT ( 'NONE',  ( -25.00000000000000400, 24.99999999999999600, 4.750000000000000000 ) ) ;
ENDSEC;
END-ISO-10303-21;
